Bad Religion - American Jesus Chords & Tabs

 

American Jesus Chords & Tabs

Bad Religion Chords & Tabs

Version: 6 Type: Tab 0 ratings
1 star 2 stars 3 stars 4 stars 5 stars
comments

American Jesus Tab

--------------------------------------------------------------------------
		      American Jesus - Bad Religion
--------------------------------------------------------------------------
Tabbed by: Sam Johnson
Email: elcapitan@charter.net

Tuning: Normal w/Distortion

Intro:
e|----------------------------------------------------------------------|
B|----------------------------------------------------------------------|
G|----------------------------------------------------------------------|
D|----------------------------------------------------------------------|
A|----------------------------------------------------------------------|
E|-5--5/7-8--7h8-10--8-7-8-7-5--5--5/7-8-7h8-10-8-7-8-7-5---------------| x2

e|----------------------------------------------------------------------|
B|----------------------------------------------------------------------|
G|----------------------------------------------------------------------|
D|----------------------------------------------------------------------|
A|----------------------------------------------------------------------|
E|-5--5/7-8--7h8-10--8-7-8-7-5--5--5/7-8-7h8-10(bend slightly and hold)-|

Verse:
e|----------------------------------------------------------------------|
B|----------------------------------------------------------------------|
G|----------------------------------------------------------------------|
D|--7--7-7-7-7-10--10-10-10-10-3--3-3-3-3-5--5-5-5-5--------------------|
A|--7--7-7-7-7-10--10-10-10-10-3--3-3-3-3-5--5-5-5-5--------------------|
E|--5--5-5-5-5-8---8--8--8--8--1--1-1-1-1-3--3-3-3-3--------------------| x3

e|----------------------------------------------------------------------|
B|----------------------------------------------------------------------|
G|----------------------------------------9--9-9-9-9--------------------|
D|--5--5-5-5-5-10--10-10-10-10-3--3-3-3-3-9--9-9-9-9--------------------|
A|--5--5-5-5-5-10--10-10-10-10-3--3-3-3-3-7--7-7-7-7--------------------|
E|--5--5-5-5-5-8---8--8--8--8--1--1-1-1-1-------------------------------|

Chorus:
e|----------------------------------------------------------------------|
B|----------------------------------------------------------------------|
G|----------------------------------------------------------------------|
D|--7--7-7-10--10-10-3--3-3-5--5-5--------------------------------------|
A|--7--7-7-10--10-10-3--3-3-5--5-5--------------------------------------|
E|--5--5-5-8---8--8--1--1-1-3--3-3--------------------------------------| x2
[ Tab from: http://www.guitartabs.cc/tabs/b/bad_religion/american_jesus_tab_ver_6.html ]
e|----------------------------------------------------------------------|
B|----------------------------------------------------------------------|
G|-------------------7--7-7---------------------------------------------|
D|--7--7-7-10--10-10-7--7-7-5--5-5--------------------------------------|
A|--7--7-7-10--10-10-5--5-5-5--5-5--------------------------------------|
E|--5--5-5-8---8--8---------3--3-3--------------------------------------|

e|----------------------------------------------------------------------|
B|----------------------------------------------------------------------|
G|----------------------------------------------------------------------|
D|--7--7-7-7--7-7-5--5-5-3--3-3-----------------------------------------|
A|--7--7-7-7--7-7-5--5-5-3--3-3-----------------------------------------|
E|--5--5-5-5--5-5-3--3-3-1--1-1-----------------------------------------|

Bridge:
e|----------------------------------------------------------------------|
B|----------------------------------------------------------------------|
G|----------------------------------------------------------------------|
D|----------------------------------------------------------------------|
A|----------------------------------------------------------------------|
E|--5--5/7-8--7h8-10--8-7-8-7-5--5--5/7-8-7h8-10-8-7-8-7-5--------------| x2

Verse

Chorus

Final Verse: Play 6 times
e|----------------------------------------------------------------------|
B|----------------------------------------------------------------------|
G|----------------------------------------------------------------------|
D|--7-7-7-7-7-7-7-7-10-10-10-10-10-10-10-10-----------------------------|
A|--7-7-7-7-7-7-7-7-10-10-10-10-10-10-10-10-----------------------------|
E|--5-5-5-5-5-5-5-5-8--8--8--8--8--8--8--8------------------------------|

e|----------------------------------------------------------------------|
B|----------------------------------------------------------------------|
G|----------------------------------------------------------------------|
D|--3-3-3-3-3-3-3-3-5-5-5-5-5-5-5-5-------------------------------------|
A|--3-3-3-3-3-3-3-3-5-5-5-5-5-5-5-5-------------------------------------|
E|--1-1-1-1-1-1-1-1-3-3-3-3-3-3-3-3-------------------------------------|

Chorus

Outro:
e|----------------------------------------------------------------------|
B|----------------------------------------------------------------------|
G|----------------------------------------------------------------------|
D|----------------------------------------------------------------------|
A|----------------------------------------------------------------------|
E|--5--5/7-8--7h8-10--8-7-8-7-5--5--5/7-8-7h8-10-8-7-8-7-5--------------| x6
 Start fading out after playing 4 times
Comments