Bad Religion - American Jesus Chords & Tabs

 

American Jesus Chords & Tabs

Bad Religion Chords & Tabs

Version: 3 Type: Tab 0 ratings
1 star 2 stars 3 stars 4 stars 5 stars
comments

American Jesus Tab

-Intro-
-----------------------------------------------------------------
-----------------------------------------------------------------
-----------------------------------------------------------------
------------------0---------------------------2------------------
-0--0--2--3--2--3---3--2--3--2--0-[-0-0-2-3-2----]---------------
-----------------------------------------------------------------

-Verse-
-----------------------------------------------------------------
-----------------------------------------------------------------
-----------------------------------------------------------------
-7-----------10-----------3-----------5--------------------------
-7-(8 times)-10-(8 times)-3-(8 times)-5-(8 times)----------------
-5------------8-----------1-----------3--------------------------
[ Tab from: http://www.guitartabs.cc/tabs/b/bad_religion/american_jesus_tab_ver_3.html ]
-Chorus-
-----------------------------------------------------------------
-----------------------------------------------------------------
-----------------------------------------------------------------
-7-----------10-----------3-----------5--------------------------
-7-(4 times)-10-(4 times)-3-(4 times)-5-(4 times)----------------
-5------------8-----------1-----------3--------------------------

-Bridge-
-----------------------------------------------------------------
-----------------------------------------------------------------
-----------------------------------------------------------------
-7-----------10-----------3-----------5--------------------------
-7-(8 times)-10-(8 times)-3-(8 times)-5-(8 times)----------------
-5------------8-----------1-----------3--------------------------
[______________pm_____________________pm____________________pm____]

-outro-
-----------------------------------------------------------------
-----------------------------------------------------------------
-----------------------------------------------------------------
------------------0----------------------------------------------
-0--0--2--3--2--3---3--2--3--2--0-[-0-0-2-3-2-------]------------
----------------------------------------------3-2-0--------------
Comments