Bad Religion - American Jesus Full Song Chords & Tabs

 

American Jesus Full Song Chords & Tabs

Bad Religion Chords & Tabs

Version: 1 Type: Tab 0 ratings
1 star 2 stars 3 stars 4 stars 5 stars
comments

American Jesus Full Song Tab

   
American Jesus- Bad Religion
hopefully better than the other lame tabs that dont cover the whole song.
not sure about the endings of verses and chorous but you can work it out. 

Intro\Main Riff
e |-----------------------------------------------------------------
B |-----------------------------------------------------------------
G |-----------------------------------------------------------------
D |-----------------0-------------------------------0---------------
A |-0---0h2-3---2h3-----3r2-3r2-0---0---0h2-3---2h3-----3r2-3r2-0---
E |-----------------------------------------------------------------

Intro End (ring for a second while the drums kick in)
e |----------
B |----------
G |----------
D |---2------Lead
A |----------
E |----------

Intro End
e |----------
B |----------
G |----------
D |3-3-3-----Rythm (one guitar plays intro bit all the way through)
A |3-3-3-----
E |1-1-1-----
[ Tab from: http://www.guitartabs.cc/tabs/b/bad_religion/american_jesus_full_song_tab.html ]
Verse/Chorus/Interlude-(same except for timing and chorus ending.) Listen to song
e |-------------------------------------------------------------------------
B |-------------------------------------------------------------------------
G |-------------------------------------------------------------------------x4
D |-7-7-7-7-7-7-7-7-10-10-10-10-10-10-10-10-3-3-3-3-3-3-3-3-5-5-5-5-5-5-5-5-
A |-7-7-7-7-7-7-7-7-10-10-10-10-10-10-10-10-3-3-3-3-3-3-3-3-5-5-5-5-5-5-5-5-
E |-5-5-5-5-5-5-5-5--8--8--8--8--8--8--8--8-1-1-1-1-1-1-1-1-3-3-3-3-3-3-3-3-

e |-------------------------------------------------------------------------
B |-------------------------------------------------------------------------
G |-------------------------------------------------------------------------x3
D |-7-7-7---10-10-10---3-3-3---5-5-5----------------------------------------
A |-7-7-7---10-10-10---3-3-3---5-5-5----------------------------------------
E |-5-5-5----8--8--8---1-1-1---3-3-3----------------------------------------
                                             
Go to this at end of Verse
E-------
B-------
G-------
D-2222--
A-2222--
E-0000--

Third time playing Chorus instead of: 
E-----------------------
B-----------------------
G-----------------------
D---33333333--55555555--
A---33333333--33333333--
E---11111111--33333333--

Play this: (seen this on another tab but im not sure if its right)
e |---------------------
B |---------------------
G |--7777--10-10-10-10--
D |--7777--10-10-10-10--
A |--5555--8--8--8--8---
E |---------------------


Very End of Chorus(President's Estate Part)
E-----------------------------------
B-----------------------------------
G-----------------------------------
D--77777777-55555555-33333333-22----
A--77777777-55555555-33333333-22----
E--55555555-33333333-11111111-00----

Comments