Bad Religion - 21st Century Digital Boy Chords & Tabs

 

21st Century Digital Boy Chords & Tabs

Bad Religion Chords & Tabs

Version: 5 Type: Tab 0 ratings
1 star 2 stars 3 stars 4 stars 5 stars
comments

21st Century Digital Boy Tab

------------------------------------------------------------------------------- 
                    21ST CENTURY DIGITAL BOY - Bad Religion 
------------------------------------------------------------------------------- 

Transcribed by: Craig 
Email: Utensils_attack@hotmail.com 

...-Palm Mute 
X-Muted string 
V-let ring 

Intro 
------------------------------------------------------------------------------ 
------------------------------------------------------------------------------ 
------------------------------------------------------------------------------ 
-6-6-6-6-6-6-6-6-6-6-6-6-6----------------------------------------------------- 
-6-6-6-6-6-6-6-6-6-6-6-6-6----------------------------------------------------- 
-4-4-4-4-4-4-4-4-4-4-4-4-4----------------------------------------------------- 
............. 

Verse 
------------------------------------------------------------------------------ 
------------------------------------------------------------------------------ 
-6-6-x------------------------------------------------------------------------ 
-6-6-x-2-2-x-4-4-x-7-7-6-6---------------------------------------------------- 
-4-4-x-2-2-x-4-4-x-7-7-6-6---------------------------------------------------- 
-------0-0-x-2-2-x-5-5-4-4---------------------------------------------------- 

------------------------------------------------------------------------------ 
------------------------------------------------------------------------------ 
-6-6-6-6---------------------------------------------------------------------- 
-6-6-6-6-2-2-2-2-4-4-4-4-7-7-6-6---------------------------------------------- 
-4-4-4-4-2-2-2-2-4-4-4-4-7-7-6-6---------------------------------------------- 
---------0-0-0-0-2-2-2-2-5-5-4-4---------------------------------------------- 

------------------------------------------------------------------------------ 
------------------------------------------------------------------------------ 
-6-6-x------------------------------------------------------------------------ 
-6-6-x-2-2-4-6-7-------------------------------------------------------------- 
-4-4-x-2-2-4-6-7-------------------------------------------------------------- 
-------0-0-2-4-5-------------------------------------------------------------- 
[ Tab from: http://www.guitartabs.cc/tabs/b/bad_religion/21st_century_digital_boy_tab_ver_5.html ]
Pre Chorus 
------------------------------------------------------------------------------ 
------------------------------------------------------------------------------ 
------------------------------------------------------------------------------ 
-6-6-6-6-6-6-6-6-6-6---------------------------------------------------------- 
-6-6-6-6-6-6-6-6-6-6---------------------------------------------------------- 
-4-4-4-4-4-4-4-4-4-4---------------------------------------------------------- 
.......... 

Chorus VV only play last time 
--------------------------------|--------------------------------------------- 
--------------------------------|--------------------------------------------- 
-6-6-6-6------------------------|--------------------------------------------- 
-6-6-6-6-7-7-7-7-2-2-2-2-4-4-4-4|-6-6-6-6-6-6-6-6----------------------------- 
-4-4-4-4-7-7-7-7-2-2-2-2-4-4-4-4|-6-6-6-6-6-6-6-6----------------------------- 
---------5-5-5-5-0-0-0-0-2-2-2-2|-4-4-4-4-4-4-4-4----------------------------- 
............... 
Bridge 
------------------------------------------------------------------------------ 
------------------------------------------------------------------------------ 
-6-v-------------------------------------------------------------------------- 
-6-v-----7-v-----2v------4-v-------------------------------------------------- 
-4-v-----7-v-----2v------4-v-------------------------------------------------- 
---------5-v-----0v------2-v-------------------------------------------------- 

Outro 
------------------------------------------------------------------------------ 
------------------------------------------------------------------------------ 
------------------------------------------------------------------------------ 
-6-6-6-6-6-6-6-6-6-6-6-6--7---------------------------------------------------
-6-6-6-6-6-6-6-6-6-6-6-6--7--------------------------------------------------- 
-4-4-4-4-4-4-4-4-4-4-4-4--5--------------------------------------------------- 
.... ..... ...... .. 

Intro 
Verse x2 
Pre Chorus 
Chorus x4 
Verse x2 
Pre Chorus 
Chorus x4 
Bridge x4 
Solo-Not tabbed, sorry 
Chorus x8 
Outro 

Ok, thats it i think, no solo tabbed sorry, 
very easy song to play and very fun to play too. 
Email me with comments whatever 
-------------------------------------------------------------------------------
Comments