Bad Company - Burnin Sky Chords & Tabs

 

Burnin Sky Chords & Tabs

Bad Company Chords & Tabs

Version: 1 Type: Tab 2 ratings
1 star 2 stars 3 stars 4 stars 5 stars
comments

Burnin Sky Tab

   
Gtr I (E A D G B E)

  (ThundeModerately Q=94        Burnin' Sky Q=H
 4/4
  Gtr I
    W       W  W S S  S E  E E.  Q     Q  Q S S  S E  E E.  Q
|--------|--------------------------|--------------------------|---|
|--------|--------------------------|--------------------------|---|
|--------|-10s12-----12---12--------|-10s12-----12---12--------|---|
|--------|-10s12-----12---12--------|-10s12-----12---12--------|---|
|--------|--8s10-----10---10--------|--8s10-----10---10--------|---|
|--------|--------------------------|--------------------------|---|


            Chorus Q=H
  Wx2        W  W S S  S E  E E.  Q    Q  Q S S  S E  E E.  Q
|---------|--------------------------|-------------------------|---|
|---------|--------------------------|-------------------------|---|
|---------|-10s12-----12---12--------|-------------------------|---|
|---------|-10s12-----12---12--------|-8s10-----10---10--------|---|
|---------|--8s10-----10---10--------|-8s10-----10---10--------|---|
|---------|--------------------------|-6s=8------8----8--------|---|


  Q    E E    E    E  E S S  S E  E E. Q
|---------------|-------------------------|----|
|-8------8------|-------------------------|----|
|-8------5------|-10s12-----12---12-------|----|
|-8------7------|-10s12-----12---12-------|----|
|-6------5------|--8s10-----10---10-------|----|
|---------------|-------------------------|----|


   E  E S S  S E  E E. Q    Q   Q  S S  S E  E E. Q    Q  E E E
|-------------------------|--------------------------|-------------|
|-------------------------|--------------------------|-8----8------|
|-10s12-----12---12-------|--------------------------|-8----5------|
|-10s12-----12---12-------|-8s=10------10---10-------|-8----7------|
|--8s10-----10---10-------|-8s=10------10---10-------|-6----5------|
|-------------------------|-6s==8-------8----8-------|-------------|


                                 Verse 1,2,3 Q=H
   E          E    E             E    E  E     E
|---------------|-------------||-----------------|
|---------------|-------------||-----------------|
|-12---------12-|-12----------||-5-------3-------|
|-12---------12-|-12----------||-5-------3-------|
|-10---------10-|-10----------||-3-------1-------|
|---------------|-------------||-----------------|


  E E E Q  Q  E.   E    E E     E   E      E  H    H
|----------------|----------------|------------------|
|----------------|----------------|------------------|
|---0-0----0-----|-5------3-------|--------0-------0-|
|-5--------------|-5------3-------|-5----------------|
|-5--------------|-3------1-------|-5----------------|
|-3--------------|----------------|-3----------------|

[ Tab from: http://www.guitartabs.cc/tabs/b/bad_company/burnin_sky_tab.html ]
  H     E E      E   E     E     Q Q E
|------------------|--------------------|----|
|------------------|--------------------|----|
|-5-------3--------|-------0---------0--|----|
|-5-------3--------|-5------------------|----|
|-3-------1--------|-5------------------|----|
|------------------|-3-----------3------|----|


  H    E E E    E  E S S  S E  E  Q    E  E S S  S E  E  Q
|------------|----------------------|-----------------------|----|
|------------|----------------------|-----------------------|----|
|-5------3---|-10s12-----12---12----|-10S12-----12---12-----|----|
|-5------3---|-10s12-----12---12----|-10S12-----12---12-----|----|
|-3------1---|--8s10-----10---10----|--8S10-----10---10-----|----|
|------------|----------------------|-----------------------|----|


                                          Guitar Solo w/wah-wah Q=H
                                                             ~
   E  E S S  S E  E    E  E S S  S E  E   S      S S S S S S S  S   S S S
|-------------------|-------------------|-----------------------------------|
|-------------------|-------------------|---------------------------3-6-3---|
|-10s12-----12---12-|-10s12-----12---12-|-5b7r===5-3h5p3--------5b7---------|
|-10s12-----12---12-|-10s12-----12---12-|----------------5p3h5--------------|
|--8s10-----10---10-|--8s10-----10---10-|-----------------------------------|
|-------------------|-------------------|-----------------------------------|


                                                                                             ~~
  S S S S S S S S S S  S   S  S      S       S  S  S  S  S  S     S  S  S  S  S     S  S  S  S
|----------------------------------------------------------------------------------------------|
|-------------------6--------------------------------------------------------------------------|
|-5-3h5p3-------5s7----7------------17b19r==17p15-17----15-17b19r17p15----15-17b19r17p15-17----|
|---------5p3-5-----------13-13b15-------------------17----------------17-------------------17-|
|----------------------------------------------------------------------------------------------|
|----------------------------------------------------------------------------------------------|


                                                                   grad release>p Q=H
                                  ~~                ~~
   S  S        S      S  S  S  S  S    S  S  S  S   S         S          S
|--------------------------------------------------------------------------|
|----18b20----18b20r=18-15-------------------------------------------------|
|-15--------------------------17-15------------15------------17b18r=====17-|
|--------------------------17---------17p15-17-----17----------------------|
|--------------------------------------------------------------------------|
|--------------------------------------------------------------------------|


               Cont,with F5,&G5 untill f Q=H
   ~~
   S      S    S  S
|-----------*|---------|
|-----------*|---------|
|-15-----15-*|---------|
|-----------*|-3--5----|
|-----------*|-3--5----|
|-----------*|-1--3----|
Comments