Bad Brains - Endtro Chords & Tabs

 

Endtro Chords & Tabs

Bad Brains Chords & Tabs

Version: 1 Type: Bass Tab 0 ratings
1 star 2 stars 3 stars 4 stars 5 stars
comments

Endtro Bass Tab

Artist: Bad Brains
Song: Endtro
Album: Quickness (1989)
Notes:
~ - Let Ring
x - Mute note
                
G|------------------------------------|
D|--------------------------------2~--|
A|------------------------------------|
E|--5~--55-5--2-3~-xxxx-2~---3-2------|

G|------------------------------------|
D|------------------------------2~----|
A|------------------------------------|
E|--5~----2-3~--xxxx-2~---3-2---------|
|
|
|
and that's it
[ Tab from: http://www.guitartabs.cc/tabs/b/bad_brains/endtro_btab.html ]
Comments