Bad Astronaut - Killers And Liars Chords & Tabs

 

Killers And Liars Chords & Tabs

Bad Astronaut Chords & Tabs

Version: 1 Type: Chords 0 ratings
1 star 2 stars 3 stars 4 stars 5 stars
comments

Killers And Liars Chords

   
Song: Killers and Liars
Band: Bad Astronaut
Album: Houston, We Have A Drinking Problem

Chords:

E|--5--|  |--3--|  |--2--|  |--2--|  |-----|  |-----|
B|--5--|  |--3--|  |--2--|  |--3--|  |--7--|  |--8--|
G|--6--|  |--4--|  |--2--|  |--4--|  |--7--|  |--7--|
D|--7--|  |--5--|  |--4--|  |--4--|  |--7--|  |--7--|
A|--7--|  |--5--|  |--4--|  |--2--|  |--5--|  |--5--|
E|--5--|  |--3--|  |--2--|  |-----|  |-----|  |-----|
    A        G        F#m      Bm       D        Dsus

Intro: A G A D  A G A D Dsus

D                     G       A      F#m         Bm
Ruth, think about the hope we waste, everyday we erase
             A          G    A
Ruthie can't hear me at all
G      A
I come home
  F#m            Bm
Another story to own
                A         G
This one speaks highly of you
   A            D
In notes of the cruel

    G             A            F#m         Bm
And lying is like murder, it's easier each time
        G             A                 D
There's only one more step towards your prize
F#m        G
Open their eyes 
D F#m   G
Open my eyes

D              G   A     F#m            Bm
If we could be anything, I'm a dirty monster
         A         G     A
Once I remember forget
G       A     F#m      Bm
Lies confess, eyes undress
              A          G
Your eyes are covered in tarp
   A           D 
We buried your heart

[CHORUS]

Bridge:
[ Tab from: http://www.guitartabs.cc/tabs/b/bad_astronaut/killers_and_liars_crd.html ]
E|------------------------------------------|
B|------------------------------------------|
G|--77777777--77777777--77777777--77777777--|
D|--77777777--77777777--77777777--77777777--|
A|--55555555--55555555--55555555--55555555--|
E|------------------------------------------|

(I've got the sickness...)
E|---------------------------------------|
B|---------------------------------------|
G|--xx7x77xx7x77-------------------------|
D|--xx7x77xx7x77--22222222---------------|
A|--xx5x55xx5x55--22222222--77-66-55-44--|
E|----------------00000000---------------|

(I am diseased boy...)
E|----------------------------------------|
B|----------------------------------------|
G|----------------------77777777------88--|
D|--55555555--77777777--77777777--55--88--|
A|--55555555--77777777--55555555--55--66--|
E|--33333333--55555555------------33------|

(We are revenge...)
E|---------------------------------------|
B|---------------------------------------|
G|--xx7x77xx7x77-------------------------|
D|--xx7x77xx7x77--22222222---------------|
A|--xx5x55xx5x55--22222222--77-66-55-44--|
E|----------------00000000---------------|

(Hypercynical...)
E|-------------------------------|
B|-------------------------------|
G|-------------------------------|
D|--55555555--77777777-----------|
A|--55555555--77777777--6(bend)--|
E|--33333333--55555555-----------|

Chorus:

(I dreamt murder...)
E|------------------------------|
B|------------------------------|
G|------------2222--4444--6666--|
D|--55555555--------------------|
A|--55555555--0000--2222--4444--|
E|--33333333--------------------|

(Ending my regrets...)
E|------------------------------|
B|------------------------------|
G|------------7777--6666--4444--|
D|--44444444--------------------|
A|--44444444--5555--4444--2222--|
E|--22222222--------------------|

(One thing to depend...)
E|--------------------------------------------|
B|------------------------------------xxx-----|
G|----------------------77777777------764-xx--|
D|--55555555--77777777--77777777--44------74--|
A|--55555555--77777777--55555555--44----------|
E|--33333333--55555555------------22----------|

(Open your eyes...)
E|---------|
B|---------|
G|--7------|
D|--7--44--|
A|--5--44--|
E|-----22--|
Comments