Backwards Alphabet - Strawberry Chapstick Chords & Tabs

 

Strawberry Chapstick Chords & Tabs

Backwards Alphabet Chords & Tabs

Version: 1 Type: Tab 0 ratings
1 star 2 stars 3 stars 4 stars 5 stars
comments

Strawberry Chapstick Tab

#--------------------------------PLEASE NOTE--------------------------------------#
# This file is the author's own work and represents their transcription of        #
# the song. You may only use this file for private study, scholarship, or         #
# research. Remember to view this file in Courier, or some other monospaced font. #
#---------------------------------------------------------------------------------#

Guide to TAB:
|-------------------------+------------------|
|  ~  = let ring/tremolo  |  >  = accent     |
|  ^  = trill             |  h  = hammer on  |
| b/r = bend and release  |  p  = pull off   |
|-------------------------+------------------|


Song: Strawberry Chapstick
Album: Unreleased
Artist: Backwards Alphabet



Intro x2
e|-------------------|-------------------|-------------------|-------------------|
B|-8-r---------------|-8-r---------------|-8-r---------------|-------------------|
G|-t-e-9-------------|-t-e-9-------------|-t-e-9-------------|-------------------|
D|-h-s-----9-7--6----|-h-s-----9-7--6----|-h-s-----9-7--6----|-------------------|
A|---t-------------7-|---t-------------7-|---t-------------7-|--7--9--11-9--7--9-|
E|-------------------|-------------------|-------------------|-------------------|


Verse x2
e|------------------|------------------|------------------|------------------|
B|------------------|------------------|------------------|------------------|
G|--9-9-9-9-9-9-9-9-|------------------|------------------|------------------|
D|--9-9-9-9-9-9-9-9-|--9-9-9-9-9-9-9-9-|--6-6-6-6-6-6-6-6-|--7-7-7-7-7-7-7-7-|
A|--7-7-7-7-7-7-7-7-|--9-9-9-9-9-9-9-9-|--6-6-6-6-6-6-6-6-|--7-7-7-7-7-7-7-7-|
E|------------------|--7-7-7-7-7-7-7-7-|--4-4-4-4-4-4-4-4-|--5-5-5-5-5-5-5-5-|


Verse x1
e|------------------|------------------|------------------|------------------|
B|------------------|------------------|------------------|------------------|
G|--9-9-9-9-9-9-9-9-|------------------|------------------|------------------|
D|--9-9-9-9-9-9-9-9-|--9-9-9-9-9-9-9-9-|--6-6-6-6-6-6-6-6-|--7-7-7-7-9-9-9-9-|
A|--7-7-7-7-7-7-7-7-|--9-9-9-9-9-9-9-9-|--6-6-6-6-6-6-6-6-|--7-7-7-7-9-9-9-9-|
E|------------------|--7-7-7-7-7-7-7-7-|--4-4-4-4-4-4-4-4-|--5-5-5-5-7-7-7-7-|


Chorus x3
e|------------------|------------------|------------------|------------------|
B|------------------|--(elevens)-------|------------------|------------------|
G|--9-9-9-9-9-9-9-9-|------------------|------------------|------------------|
D|--9-9-9-9-9-9-9-9-|--1111111111111111|--9-9-9-9-9-9-9-9-|--7--9--119--7--9-|
A|--7-7-7-7-7-7-7-7-|--1111111111111111|--9-9-9-9-9-9-9-9-|--7--9--119--7--9-|
E|------------------|--9-9-9-9-9-9-9-9-|--7-7-7-7-7-7-7-7-|--5--7--9-7--5--7-|


Intro x1
e|-------------------|-------------------|-------------------|-------------------|
B|-8-r---------------|-8-r---------------|-8-r---------------|-------------------|
G|-t-e-9-------------|-t-e-9-------------|-t-e-9-------------|-------------------|
D|-h-s-----9-7--6----|-h-s-----9-7--6----|-h-s-----9-7--6----|-------------------|
A|---t-------------7-|---t-------------7-|---t-------------7-|--7--9--11-9--7--9-|
E|-------------------|-------------------|-------------------|-------------------|


Verse x2
e|------------------|------------------|------------------|------------------|
B|------------------|------------------|------------------|------------------|
G|------------------|------------------|------------------|------------------|
D|--6-6-6-6-6-6-6-6-|--4-4-4-4-4-4-4-4-|--7-7-7-7-7-7-7-7-|--7-7-7-7-7-7-7-7-|
A|--6-6-6-6-6-6-6-6-|--4-4-4-4-4-4-4-4-|--7-7-7-7-7-7-7-7-|--7-7-7-7-7-7-7-7-|
E|--4-4-4-4-4-4-4-4-|--2-2-2-2-2-2-2-2-|--5-5-5-5-5-5-5-5-|--5-5-5-5-5-5-5-5-|

[ Tab from: http://www.guitartabs.cc/tabs/b/backwards_alphabet/strawberry_chapstick_tab.html ]
Verse x1
e|------------------|------------------|------------------|------------------|
B|------------------|------------------|------------------|------------------|
G|------------------|------------------|------------------|------------------|
D|--6-6-6-6-6-6-6-6-|--4-4-4-4-4-4-4-4-|--7-7-7-7-7-7-7-7-|--7-7-7-7-9-9-9-9-|
A|--6-6-6-6-6-6-6-6-|--4-4-4-4-4-4-4-4-|--7-7-7-7-7-7-7-7-|--7-7-7-7-9-9-9-9-|
E|--4-4-4-4-4-4-4-4-|--2-2-2-2-2-2-2-2-|--5-5-5-5-5-5-5-5-|--5-5-5-5-7-7-7-7-|


Chorus x3
e|------------------|------------------|------------------|------------------|
B|------------------|--(elevens)-------|------------------|------------------|
G|--9-9-9-9-9-9-9-9-|------------------|------------------|------------------|
D|--9-9-9-9-9-9-9-9-|--1111111111111111|--9-9-9-9-9-9-9-9-|--7--9--119--7--9-|
A|--7-7-7-7-7-7-7-7-|--1111111111111111|--9-9-9-9-9-9-9-9-|--7--9--119--7--9-|
E|------------------|--9-9-9-9-9-9-9-9-|--7-7-7-7-7-7-7-7-|--5--7--9-7--5--7-|


Verse x4 or 5
e|--0-----0-2--0----|--0-----0-2--0----|--0-----0-2--0----|--4--0----2--0----|
B|-----0----------0-|-----0----------0-|-----0----------0-|--------0-------0-|
G|------------------|------------------|------------------|------------------|
D|------------------|------------------|------------------|------------------|
A|------------------|------------------|------------------|------------------|
E|------------------|------------------|------------------|------------------|

(wait a few seconds)

Bridge-dealie x4
e|------------------|------------------|------------------|------------------|
B|------------------|------------------|------------------|------------------|
G|------------------|------------------|------------------|------------------|
D|--7-7-7-7---9-9---|------------------|--7-7-7-7---9-9---|------------------|
A|--7-7-7-7---9-9---|------------------|--7-7-7-7---9-9---|------------------|
E|--5-5-5-5---7-7---|------------------|--5-5-5-5---7-7---|----------9---7---|


Chorus x2
e|------------------|------------------|------------------|------------------|
B|------------------|--(elevens)-------|------------------|------------------|
G|--9-9-9-9-9-9-9-9-|------------------|------------------|------------------|
D|--9-9-9-9-9-9-9-9-|--1111111111111111|--9-9-9-9-9-9-9-9-|--7--9--119--7--9-|
A|--7-7-7-7-7-7-7-7-|--1111111111111111|--9-9-9-9-9-9-9-9-|--7--9--119--7--9-|
E|------------------|--9-9-9-9-9-9-9-9-|--7-7-7-7-7-7-7-7-|--5--7--9-7--5--7-|


chorus-intro x1
e|-------------------|-------------------|-------------------|-------------------|
B|-8-r---------------|-8-r---------------|-8-r---------------|-------------------|
G|-t-e-9-------------|-t-e-9-------------|-t-e-9-------------|-------------------|
D|-h-s-----9-7--6----|-h-s-----9-7--6----|-h-s-----9-7--6----|--7--9--11-9--7--9-|
A|---t-------------7-|---t-------------7-|---t-------------7-|--7--9--11-9--7--9-|
E|-------------------|-------------------|-------------------|--5--7--9--7--5--7-|


Intro x1
e|-------------------|-------------------|-------------------|-------------------|
B|-8-r---------------|-8-r---------------|-8-r---------------|-------------------|
G|-t-e-9-------------|-t-e-9-------------|-t-e-9-------------|--9--11-13-11-9--11|
D|-h-s-----9-7--6----|-h-s-----9-7--6----|-h-s-----9-7--6----|--9--11-13-11-9--11|
A|---t-------------7-|---t-------------7-|---t-------------7-|--7--9--11-9--7--9-|
E|-------------------|-------------------|-------------------|-------------------|


End x1
e|-------------------|-------------------|
B|-------------------|-------------------|
G|--9--11-13-11-9--11|--9----------------|
D|--9--11-13-11-9--11|--9----------------|
A|--7--9--11-9--7--9-|--7----------------|
E|-------------------|-------------------|
Comments