Backwards Alphabet - Pop Princess- Bass Chords & Tabs

 

Pop Princess- Bass Chords & Tabs

Backwards Alphabet Chords & Tabs

Version: 1 Type: Bass Tab 0 ratings
1 star 2 stars 3 stars 4 stars 5 stars
comments

Pop Princess- Bass Bass Tab

#--------------------------------PLEASE NOTE--------------------------------------#
# This file is the author's own work and represents their transcription of        #
# the song. You may only use this file for private study, scholarship, or         #
# research. Remember to view this file in Courier, or some other monospaced font. #
#---------------------------------------------------------------------------------#

Guide to BASS TAB:
-----------------------------
|                           |
|  Bassist don't need       |
|   freakin' guides!        |
|                           |
-----------------------------


Song: Pop Princess
Album: Better Off Live (1.5)
Artist: Backwards Alphabet


Layout of the song:
Intro x4
Verse x1
Chorusx4
Verse x1
Chorusx4
Intro x6

[ Tab from: http://www.guitartabs.cc/tabs/b/backwards_alphabet/pop_princess_bass_btab.html ]
Intro:
G|----------------------------------|----------------------------------|
D|----------------------------------|----------------------------------|
A|----------3-3-------------3-3-3-2-|----------3-3-------------3-3-5-3-|
E|--3-3-------------5-5-------------|--3-3-------------5-5-------------|



Verse:
G|----------------------------------|----------------------------------|
D|----------------------------------|----------------------------------|
A|----------3-3-------------3-3-3p2-|----------3-3-------------3-3-5p3-|
E|--3-3-------------5-5-------------|--3-3-------------5-5-------------|

G|----------------------------------|----------------------------------|
D|----------------------------------|----------------------------------|
A|----------3-3-------------3-3-3p2-|----------------------------------|
E|--3-3-------------5-5-------------|--3-------------------------------|


Chorus: 
G|----------------------------------|
D|----------------------------------|
A|----------3-3~------------5---3p2-|
E|--3-3~------------5-5~------------|
Comments