Backwards Alphabet - Mind Control Song Chords & Tabs

 

Mind Control Song Chords & Tabs

Backwards Alphabet Chords & Tabs

Version: 1 Type: Tab 0 ratings
1 star 2 stars 3 stars 4 stars 5 stars
comments

Mind Control Song Tab

#--------------------------------PLEASE NOTE--------------------------------------#
# This file is the author's own work and represents their transcription of        #
# the song. You may only use this file for private study, scholarship, or         #
# research. Remember to view this file in Courier, or some other monospaced font. #
#---------------------------------------------------------------------------------#

Guide to TAB:
|-------------------------+------------------|
|  ~  = let ring/tremolo  |  >  = accent     |
|  ^  = trill             |  h  = hammer on  |
| b/r = bend and release  |  p  = pull off   |
|-------------------------+------------------|


Song: Mind Control Song
Album: Unreleased
Artist: Backwards Alphabet

Intro
Verse
Chorus
Verse
Chorus
Verse
Chorus
End





Intro x1
e|--3---x-3-3---x-x-|--0---x-0-0---x-x-|
B|--3---x-3-3---x-x-|--2---x-2-2---x-x-|
G|--0---x-0-0---x-x-|--2---x-2-2---x-x-|
D|--0---x-0-0---x-x-|--2---x-2-2---x-x-|
A|--2---x-2-2---x-x-|--0---x-0-0---x-x-|
E|--3---x-3-3---x-x-|--0---x-0-0---x-x-|
[ Tab from: http://www.guitartabs.cc/tabs/b/backwards_alphabet/mind_control_song_tab.html ]
e|--2---x-2-2---x-x-|--0---x-0-0---x-x-|
B|--4---x-4-4---x-x-|--1---x-1-1---x-x-|
G|--4---x-4-4---x-x-|--0---x-0-0---x-x-|
D|--4---x-4-4---x-x-|--2---x-2-2---x-x-|
A|--2---x-2-2---x-x-|--3---x-3-3---x-x-|
E|--2---x-2-2---x-x-|--x---x-x-x---x-x-|


Verse x6
e|------------------|------------------|
B|------------------|------------------|
G|------------------|------------------|
D|--0-0---0-0-0-----|--2-2---2-2-2-----|
A|--2-2---2-2-2-----|--0-0---0-0-0-----|
E|--3-3---3-3-3-----|------------------|

e|------------------|------------------|
B|------------------|------------------|
G|------------------|--0-0---0-0-0-----|
D|--0-0---0-0-0-----|--2-2---2-2-2-----|
A|--2-2---2-2-2-----|--3-3---3-3-3-----|
E|------------------|------------------|


Chorus x2
    >     >     >      >     >     >
e|------------------|------------------|
B|------------------|------------------|
G|------------------|--7-7-7-7-7-7-7-7-|
D|--5-5-5-5-5-5-5-5-|--7-7-7-7-7-7-7-7-|
A|--5-5-5-5-5-5-5-5-|--5-5-5-5-5-5-5-5-|
E|--3-3-3-3-3-3-3-3-|------------------|
    >     >     >      >     >     >
e|------------------|------------------|
B|------------------|------------------|
G|--9-9-9-9-9-9-9-9-|--5-5-5-5-5-5-5-5-|
D|--9-9-9-9-9-9-9-9-|--5-5-5-5-5-5-5-5-|
A|--7-7-7-7-7-7-7-7-|--3-3-3-3-3-3-3-3-|
E|------------------|------------------|


End
e|---------|
B|---------|
G|---------|
D|--5~-----|
A|--5~-----|
E|--3~-----|




Comments