Backwards Alphabet - Imaginary Friend Chords & Tabs

 

Imaginary Friend Chords & Tabs

Backwards Alphabet Chords & Tabs

Version: 1 Type: Tab 0 ratings
1 star 2 stars 3 stars 4 stars 5 stars
comments

Imaginary Friend Tab

#--------------------------------PLEASE NOTE--------------------------------------#
# This file is the author's own work and represents their transcription of        #
# the song. You may only use this file for private study, scholarship, or         #
# research. Remember to view this file in Courier, or some other monospaced font. #
#---------------------------------------------------------------------------------#

Guide to TAB:
|-------------------------+------------------|
|  ~  = let ring/tremolo  |  s  = slide      |
|  ^  = trill             |  h  = hammer on  |
| b/r = bend and release  |  p  = pull off   |
|-------------------------+------------------|


Song: Imaginary Friend
Album: Unreleased
Artist: Backwards Alphabet


Song:
Intro  x8
Verse  x2
Chorus x1
Intro  x8
Verse  x2
Chorus x1
Intro  x4
Rest until countoff
Chorus x3
End


Intro
e|----------------------------------|
B|----------------------------------|
G|------5---2-----------------------|
D|--3-------------5---5h7p5-7p5-3h5-|
A|----------------------------------|
E|----------------------------------|


Verse (palm mute)
e|----------------------------------|----------------------------------|
B|----------------------------------|----------------------------------|
G|----------------------------------|--7-7-----7---------7-7-7-7-7-7-7-|
D|--3-3-----3---------3-3-3-3-3-3-3-|--7-7-----7---------7-7-7-7-7-7-7-|
A|--3-3-----3---------3-3-3-3-3-3-3-|--5-5-----5---------5-5-5-5-5-5-5-|
E|--1-1-----1---------1-1-1-1-1-1-1-|----------------------------------|

e|----------------------------------|----------------------------------|
B|----------------------------------|----------------------------------|
G|--3-3-----3---------3-3-3-3-3-3-3-|--5-5-----5---------5-5-5-5-5-5-5-|
D|--3-3-----3---------3-3-3-3-3-3-3-|--5-5-----5---------5-5-5-5-5-5-5-|
A|--1-1-----1---------1-1-1-1-1-1-1-|--3-3-----3---------3-3-3-3-3-3-3-|
E|----------------------------------|----------------------------------|



Chorus
e|----------------------------------|----------------------------------|
B|----------------------------------|----------------------------------|
G|----------5~--------------5~------|--5-5-----5~----------5---5~------|
D|--3-3-----------------3-----------|--5-5-----------------5-----------|
A|--3-3-----------------3-----------|--3-3-----------------3-----------|
E|--1-1-----------------1-----------|----------------------------------|
[ Tab from: http://www.guitartabs.cc/tabs/b/backwards_alphabet/imaginary_friend_tab.html ]
e|----------------------------------|----------------------------------|
B|----------------------------------|----------------------------------|
G|--7-7-----5~----------7---5~------|--3-3-----5~----------5~------5~--|
D|--7-7-----------------7-----------|--3-3-----------------------------|
A|--5-5-----------------5-----------|--1-1-------------3~------3~------|
E|----------------------------------|----------------------------------|


Chorus (Alternate) (use either)
e|----------------------------------|----------------------------------|
B|----------------------------------|----------------------------------|
G|----------------------------------|--5-5-5-----------5-5-5-----------|
D|--3-3-3-------3-5-3-3-3-------3-5-|--5-5-5-------3-5-5-5-5-------3-5-|
A|--3-3-3---3-5-----3-3-3---3-5-----|--3-3-3---3-5-----3-3-3---3-5-----|
E|--1-1-1-----------1-1-1-----------|----------------------------------|

e|----------------------------------|----------------------------------|
B|----------------------------------|----------------------------------|
G|--7-7-7-----------7-7-7-----------|--3-3-3-----------5---5---5---5---|
D|--7-7-7-------3-5-7-7-7-------3-5-|--3-3-3-------3-5-5---5---5---5---|
A|--5-5-5---3-5-----5-5-5---3-5-----|--1-1-1---3-5-----3---3---3---3---|
E|----------------------------------|----------------------------------|


Chorus (optional end)
e|----------------------------------|----------------------------------|
B|----------------------------------|----------------------------------|
G|----------------------------------|--5-5-5-5-5-5-5-5-5-5-5-5-5-5-5-5-|
D|--3-3-3-3-3-3-3-3-3-3-3-3-3-3-3-3-|--5-5-5-5-5-5-5-5-5-5-5-5-5-5-5-5-|
A|--3-3-3-3-3-3-3-3-3-3-3-3-3-3-3-3-|--3-3-3-3-3-3-3-3-3-3-3-3-3-3-3-3-|
E|--1-1-1-1-1-1-1-1-1-1-1-1-1-1-1-1-|----------------------------------|

e|----------------------------------|----------------------------------|
B|----------------------------------|----------------------------------|
G|--7-7-7-7-7-7-7-7-7-7-7-7-7-7-7-7-|--3-3-3-3-3-3-3-3-5-5-5-5-5-5-5-5-|
D|--7-7-7-7-7-7-7-7-7-7-7-7-7-7-7-7-|--3-3-3-3-3-3-3-3-5-5-5-5-5-5-5-5-|
A|--5-5-5-5-5-5-5-5-5-5-5-5-5-5-5-5-|--1-1-1-1-1-1-1-1-3-3-3-3-3-3-3-3-|
E|----------------------------------|----------------------------------|


End
e|----------------------------------|
B|----------------------------------|
G|----------------------------------|
D|--3~------------------------------|
A|--3~------------------------------|
E|--1~------------------------------|

Comments