Backwards Alphabet - I Can Chords & Tabs

 

I Can Chords & Tabs

Backwards Alphabet Chords & Tabs

Version: 1 Type: Tab 0 ratings
1 star 2 stars 3 stars 4 stars 5 stars
comments

I Can Tab

#--------------------------------PLEASE NOTE--------------------------------------#
# This file is the author's own work and represents their transcription of        #
# the song. You may only use this file for private study, scholarship, or         #
# research. Remember to view this file in Courier, or some other monospaced font. #
#---------------------------------------------------------------------------------#

Guide to TAB:
|-------------------------+------------------|
|  ~  = let ring/tremolo  |  s  = slide      |
|  ^  = trill             |  h  = hammer on  |
| b/r = bend and release  |  p  = pull off   |
|-------------------------+------------------|


Song: I Can
Album: Better Off Live
Artist: Backwards Alphabet


Intro 2x
e|--12----12-----|--14----14-----|--12----12-----|--16----16-----|
B|-----12----12--|-----12----12--|-----12----12--|-----12----12--|
G|---------------|---------------|---------------|---------------|
D|---------------|---------------|---------------|---------------|
A|---------------|---------------|---------------|---------------|
E|---------------|---------------|---------------|---------------|


Pre-Verse
e|---------------|---------------|---------------|---------------|
B|---------------|---------------|---------------|---------------|
G|--9-9-9-9-9-9--|---------------|---------------|---------------|
D|--9-9-9-9-9-9--|--7-7-7-7-7-7--|--9-9-9-9-9-9--|--9-9-9-9-9-9--|
A|--7-7-7-7-7-7--|--7-7-7-7-7-7--|--9-9-9-9-9-9--|--9-9-9-9-9-9--|
E|---------------|--5-5-5-5-5-5--|--7-7-7-7-7-7--|--7-7-7-7-7-7--|

e|---------------|---------------|---------------|---------------|
B|---------------|---------------|---------------|---------------|
G|--9-9-9-9-9-9--|---------------|---------------|---------------|
D|--9-9-9-9-9-9--|--7-7-7-7-7-7--|--9-9-9-9-9-9--|--9~~~~~-------|
A|--7-7-7-7-7-7--|--7-7-7-7-7-7--|--9-9-9-9-9-9--|--9~~~~~-------|
E|---------------|--5-5-5-5-5-5--|--7-7-7-7-7-7--|--7~~~~~-------|


Verse 4x
e|---------------|---------------|---------------|---------------|
B|---------------|---------------|---------------|---------------|
G|----no---------|----no---------|----no---------|----no---------|
D|-----guitar----|-----guitar----|-----guitar----|-----guitar----|
A|---------------|---------------|---------------|---------------|
E|---------------|---------------|---------------|---------------|


Chorus
(lead in with pick scrape)
e|---------------|---------------|---------------|---------------|
B|---------------|---------------|---------------|---------------|
G|--9-9-9-9-9-9--|---------------|---------------|---------------|
D|--9-9-9-9-9-9--|--7-7-7-7-7-7--|--9-9-9-9-9-9--|--9-9-9-9-9-9--|
A|--7-7-7-7-7-7--|--7-7-7-7-7-7--|--9-9-9-9-9-9--|--9-9-9-9-9-9--|
E|---------------|--5-5-5-5-5-5--|--7-7-7-7-7-7--|--7-7-7-7-7-7--|

e|---------------|---------------|---------------|---------------|
B|---------------|---------------|---------------|---------------|
G|--9-9-9-9-9-9--|---------------|---------------|---------------|
D|--9-9-9-9-9-9--|--7-7-7-7-7-7--|--9-9-9-9-9-9--|--9-9-9-9-9-9--|
A|--7-7-7-7-7-7--|--7-7-7-7-7-7--|--9-9-9-9-9-9--|--9-9-9-9-9-9--|
E|---------------|--5-5-5-5-5-5--|--7-7-7-7-7-7--|--7-7-7-7-7-7--|


Verse 4x
e|---------------|---------------|---------------|---------------|
B|---------------|---------------|---------------|---------------|
G|----no---------|----no---------|----no---------|----no---------|
D|-----guitar----|-----guitar----|-----guitar----|-----guitar----|
A|---------------|---------------|---------------|---------------|
E|---------------|---------------|---------------|---------------|

[ Tab from: http://www.guitartabs.cc/tabs/b/backwards_alphabet/i_can_tab.html ]
Chorus 4x
(lead in with pick scrape)
e|---------------|---------------|---------------|---------------|
B|---------------|---------------|---------------|---------------|
G|--9-9-9-9-9-9--|---------------|---------------|---------------|
D|--9-9-9-9-9-9--|--7-7-7-7-7-7--|--9-9-9-9-9-9--|--9-9-9-9-9-9--|
A|--7-7-7-7-7-7--|--7-7-7-7-7-7--|--9-9-9-9-9-9--|--9-9-9-9-9-9--|
E|---------------|--5-5-5-5-5-5--|--7-7-7-7-7-7--|--7-7-7-7-7-7--|


Solo
e|--12-12-12-12-12-12-12-12-14b/r-12------------------------------------------------------------------------
B|--12-12-12-12-12-12-12-12----------14-12------------------------------------------------------------------
G|-----------------------------------------13-11-9-9-11-9-9-11-9-9-11p-9-11b/r-9---------9h11-9-11s13-13-11-
D|-------------------------------------------------------------------------------11-9h11--------------------
A|----------------------------------------------------------------------------------------------------------
E|----------------------------------------------------------------------------------------------------------

e|--------12h14-12-12-14-14s16-16-14-12-12-12^^^^^^^-14^^^^^^^-16^^^^^^^-19^^^^^^^-16^^^^^^^-14^^^^^^^-12---
B|--12h14---------------------------------------------------------------------------------------------------
G|----------------------------------------------------------------------------------------------------------
D|----------------------------------------------------------------------------------------------------------
A|----------------------------------------------------------------------------------------------------------
E|----------------------------------------------------------------------------------------------------------

e|--12-14-12-12-14p12-14b/r-12---------------------------------------
B|-----------------------------14-12--------------------11b/r--------
G|-----------------------------------13-11-9-9-11p9-11b-------9~~~~~-
D|-------------------------------------------------------------------
A|-------------------------------------------------------------------
E|-------------------------------------------------------------------


Verse 4x
e|---------------|---------------|---------------|---------------|
B|---------------|---------------|---------------|---------------|
G|----no---------|----no---------|----no---------|----no---------|
D|-----guitar----|-----guitar----|-----guitar----|-----guitar----|
A|---------------|---------------|---------------|---------------|
E|---------------|---------------|---------------|---------------|


Chorus 4x
(lead in with pick scrape)
e|---------------|---------------|---------------|---------------|
B|---------------|---------------|---------------|---------------|
G|--9-9-9-9-9-9--|---------------|---------------|---------------|
D|--9-9-9-9-9-9--|--7-7-7-7-7-7--|--9-9-9-9-9-9--|--9-9-9-9-9-9--|
A|--7-7-7-7-7-7--|--7-7-7-7-7-7--|--9-9-9-9-9-9--|--9-9-9-9-9-9--|
E|---------------|--5-5-5-5-5-5--|--7-7-7-7-7-7--|--7-7-7-7-7-7--|


Intro 2x
e|--12----12-----|--14----14-----|--12----12-----|--16----16-----|
B|-----12----12--|-----12----12--|-----12----12--|-----12----12--|
G|---------------|---------------|---------------|---------------|
D|---------------|---------------|---------------|---------------|
A|---------------|---------------|---------------|---------------|
E|---------------|---------------|---------------|---------------|


Chorus 4x
(lead in with pick scrape)
e|---------------|---------------|---------------|---------------|
B|---------------|---------------|---------------|---------------|
G|--9-9-9-9-9-9--|---------------|---------------|---------------|
D|--9-9-9-9-9-9--|--7-7-7-7-7-7--|--9-9-9-9-9-9--|--9-9-9-9-9-9--|
A|--7-7-7-7-7-7--|--7-7-7-7-7-7--|--9-9-9-9-9-9--|--9-9-9-9-9-9--|
E|---------------|--5-5-5-5-5-5--|--7-7-7-7-7-7--|--7-7-7-7-7-7--|

End
e|------------|
B|------------|
G|--9~~~~~~~--|  let it
D|--9~~~~~~~--|   ring.
A|--7~~~~~~~--|
E|------------|
Comments