Backwards Alphabet - I Can- Bass Chords & Tabs

 

I Can- Bass Chords & Tabs

Backwards Alphabet Chords & Tabs

Version: 1 Type: Bass Tab 0 ratings
1 star 2 stars 3 stars 4 stars 5 stars
comments

I Can- Bass Bass Tab

#--------------------------------PLEASE NOTE--------------------------------------#
# This file is the author's own work and represents their transcription of        #
# the song. You may only use this file for private study, scholarship, or         #
# research. Remember to view this file in Courier, or some other monospaced font. #
#---------------------------------------------------------------------------------#

Guide to BASS TAB:
-----------------------------
|                           |
|  Bassist don't need       |
|   freakin' guides!        |
|                           |
-----------------------------


Song: I Can
Album: Better Off Live 1.5 (As Recorded @ The Music Training Center)
Artist: Backwards Alphabet


Layout of the song:
Intro x4
Chorusx2
Verse x4
Chorusx2
Verse x4
Chorusx4
Verse x2
Bridgex1
Verse x1
S.P.P.x1
Chorusx4
Intro x2
Chorusx4
Let E Ring


Intro:
G|--9---9---9---9-11---11-11---11---11---|--13---13---13---13-14---14-16---14---13---|
D|---------------------------------------|-------------------------------------------|
A|---------------------------------------|-------------------------------------------|
E|---------------------------------------|-------------------------------------------|


Verse:
G|----------------------------------|----------------------------------|
D|----------------------------------|----------------------------------|
A|--7---7-7---7-7-------------------|----------------------------------|
E|------------------5---5-5---5-5---|--7---7-7---7-7---7---7-7---7-7---|

[ Tab from: http://www.guitartabs.cc/tabs/b/backwards_alphabet/i_can_bass_btab.html ]
Chorus: 
G|----------------------------------|----------------------------------|
D|----------------------------------|----------------------------------|
A|----------------------------------|----------------------------------|
E|--0---0-0---0-0---5---5-5---5-5---|--7---7-7---7-7---7---7-7---7-7---|


Bridge:
Verse:
G|----------------------------------|----------------------------------|
D|----------------------------------|----------------------------------|
A|----------------------------------|----------------------------------|
E|--5---5-5---5-5---5---5-5---5-5---|--7---7-7---7-7---7---7-7---7-7---|



Slow Pretty Part:
G|----------------------------------|----------------------------------|
D|--------9---9---------------------|----------------------------------|
A|--7---7-------7---------7---7-----|--------9---9-----------9---9-----|
E|------------------5---5-------5---|--7---7-------7---7---7-------7---|

G|----------------------------------|----------------------------------|
D|--------9---9---------------------|----------------------------------|
A|--7---7-------7---------7---7-----|--------9---9-----------9---9-----|
E|------------------5---5-------5---|--7---7-------7---7---7-------7---|

G|------------------------11---11-----|----------13---13--------------13---13------|
D|--------9---9-----9---9---------9---|--11---11---------11---11---11---------11---|
A|--7---7-------7---------------------|--------------------------------------------|
E|------------------------------------|--------------------------------------------|

G|----------------------------------|----------------------------------|
D|--------9---9---------------------|----------------------------------|
A|--7---7-------7---------7---7-----|--------9---9-----------9---9-----|
E|------------------5---5-------5---|--7---7-------7---7---7-------7---|

Comments