Backwards Alphabet - Get It Up- Bass Chords & Tabs

 

Get It Up- Bass Chords & Tabs

Backwards Alphabet Chords & Tabs

Version: 1 Type: Bass Tab 0 ratings
1 star 2 stars 3 stars 4 stars 5 stars
comments

Get It Up- Bass Bass Tab

#--------------------------------PLEASE NOTE--------------------------------------#
# This file is the author's own work and represents their transcription of        #
# the song. You may only use this file for private study, scholarship, or         #
# research. Remember to view this file in Courier, or some other monospaced font. #
#---------------------------------------------------------------------------------#

Guide to BASS TAB:
-----------------------------
|                           |
|  Bassist don't need       |
|   frickin' guides!        |
|                           |
-----------------------------


Song: Get It Up
Album: Better Off Live (1.5)
Artist: Backwards Alphabet


Layout of the song:
Verse x6
Chorusx1
Verse x8
Chorusx1
Verse x4


Verse:
G|--------------------------------|--------------------------------|
D|--------------------------------|--------------------------------|
A|------------------5---5---5---5-|--3---3---3---3---2-2-2---0-0-0-|
E|--3---3---3---3-----------------|--------------------------------|

[ Tab from: http://www.guitartabs.cc/tabs/b/backwards_alphabet/get_it_up_bass_btab.html ]
Chorus: Speed Up
G|--------------------------------|--------------------------------|
D|--------------------------------|--------------------------------|
A|--2---2-2-2-2-2-2-2-2-2-2-2-2-2-|--0---0-0-0-0-0-0-0-0-0-0-0-0-0-|
E|--------------------------------|--------------------------------|

G|--------------------------------|--------------------------------|
D|--------------------------------|--------------------------------|
A|--------------------------------|--------------------------------|
E|--3---3-3-3-3-3-3-3-3-3-3-3-3-3-|--2---2---2---2---3---3---3---3-|

G|--------------------------------|--------------------------------|
D|--------------------------------|--------------------------------|
A|--2---2-2-2-2-2-2-2-2-2-2-2-2-2-|--0---0-0-0-0-0-0-0-0-0-0-0-0-0-|
E|--------------------------------|--------------------------------|

G|--------------------------------|--------------------------------|
D|--------------------------------|--------------------------------|
A|--------------------------------|---------------(slow back down)-|
E|--3---3-3-3-3-3-3-3-3-3-3-3-3-3-|--5---5---5---5---5---5---5---5-|

Comments