Backwards Alphabet - Dump Your Ex-girlfriend Chords & Tabs

 

Dump Your Ex-girlfriend Chords & Tabs

Backwards Alphabet Chords & Tabs

Version: 1 Type: Tab 0 ratings
1 star 2 stars 3 stars 4 stars 5 stars
comments

Dump Your Ex-girlfriend Tab

#--------------------------------PLEASE NOTE--------------------------------------#
# This file is the author's own work and represents their transcription of        #
# the song. You may only use this file for private study, scholarship, or         #
# research. Remember to view this file in Courier, or some other monospaced font. #
#---------------------------------------------------------------------------------#

Guide to TAB:
|-------------------------+------------------|
|  ~  = let ring/tremolo  |  s  = slide      |
|  ^  = trill             |  h  = hammer on  |
| b/r = bend and release  |  p  = pull off   |
|-------------------------+------------------|


Song: Dump Your Ex-Girlfriend
Album: Better Off Live
Artist: Backwards Alphabet

[ Tab from: http://www.guitartabs.cc/tabs/b/backwards_alphabet/dump_your_ex_girlfriend_tab.html ]
Verse1
e|--2---2---2--2--2--|--0---0---0--0--0--|
B|--3---3---3--3--3--|--2---2---2--2--2--|
G|--2---2---2--2--2--|--2---2---2--2--2--|
D|-------------------|-------------------|
A|-------------------|-------------------|
E|-------------------|-------------------|

e|--0---0---0--0--0--|--3---3---3--3--3--|
B|--1---1---1--1--1--|--0---0---0--0--0--|
G|--0---0---0--0--0--|--0---0---0--0--0--|
D|-------------------|-------------------|
A|-------------------|-------------------|
E|-------------------|-------------------|

Verse2

e|--2---2---2--2--2--|--0---0---0--0--0--|
B|--3---3---3--3--3--|--2---2---2--2--2--|
G|--2---2---2--2--2--|--2---2---2--2--2--|
D|-------------------|-------------------|
A|-------------------|-------------------|
E|-------------------|-------------------|

e|--0---0---0--0--0--|--3----------------|
B|--1---1---1--1--1--|--0----------------|
G|--0---0---0--0--0--|--0----------------|
D|-------------------|-------------------|
A|-------------------|-------------------|
E|-------------------|-------------------|

Verse1 x3
Verse2 x1
Verse1 x3
Verse2 x1
Bridge: Don't play x8
Verse1 x3
Verse2 x1

Comments