Backwards Alphabet - As Of Yet Untitled Chords & Tabs

 

As Of Yet Untitled Chords & Tabs

Backwards Alphabet Chords & Tabs

Version: 1 Type: Tab 0 ratings
1 star 2 stars 3 stars 4 stars 5 stars
comments

As Of Yet Untitled Tab

#--------------------------------PLEASE NOTE--------------------------------------#
# This file is the author's own work and represents their transcription of        #
# the song. You may only use this file for private study, scholarship, or         #
# research. Remember to view this file in Courier, or some other monospaced font. #
#---------------------------------------------------------------------------------#

Guide to TAB:
|-------------------------+------------------|
|  ~  = let ring/tremolo  |  s  = slide      |
|  ^  = trill             |  h  = hammer on  |
| b/r = bend and release  |  p  = pull off   |
|-------------------------+------------------|


Song: As Of Yet Untitled
Album: Unreleased
Artist: Backwards Alphabet


Intro 2x
e|--------------------------------|--------------------------------|
B|--------------------------------|--------------------------------|
G|--------------------------------|--------------------------------|
D|------7-7-5-5-4-4-5-5-4-4-------|------7-7-5-5-4-4-5-5-4-4-------|
A|--5-5---------------------7-7-5-|--------------------------7-7-5-|
E|--------------------------------|--7-7---------------------------|

e|--------------------------------|--------------------------------|
B|--------------------------------|--------------------------------|
G|--------------------------------|--------------------------------|
D|------7-7-5-5-4-4-5-5-4-4-------|------7-7-5-5-4-4-5-5-4-4-5-5s7-|
A|--------------------------7-7-5-|--------------------------------|
E|--5-5---------------------------|--3-3---------------------------|


Verse 2x
  _______________________________________________________________
 | hit then p.m. | hit then p.m. | hit then p.m. |    no p.m.    |
e|---------------|---------------|---------------|---------------|
B|---------------|---------------|---------------|---------------|
G|--7-7-7-7-7-7--|---------------|---------------|---------------|
D|--7-7-7-7-7-7--|--9-9-9-9-9-9--|--7-7-7-7-7-7--|--5-5-5-9-9-7--|
A|--5-5-5-5-5-5--|--9-9-9-9-9-9--|--7-7-7-7-7-7--|--5-5-5-9-9-7--|
E|---------------|--7-7-7-7-7-7--|--5-5-5-5-5-5--|--3-3-3-7-7-5--|


Chorus 2x
e|---------------|---------------|---------------|---------------|
B|---------------|---------------|---------------|---------------|
G|---------------|---------------|---------------|---------------|
D|--4-4-4-4-4-4--|--5-5-5-5-5-5--|--9-9-9-9-9-9--|--7-7-7-7-7-7--|
A|--4-4-4-4-4-4--|--5-5-5-5-5-5--|--9-9-9-9-9-9--|--7-7-7-7-7-7--|
E|--2-2-2-2-2-2--|--3-3-3-3-3-3--|--7-7-7-7-7-7--|--5-5-5-5-5-5--|


Post Chorus
  _______________________________
 | hit then p.m. | hit then p.m  |
e|---------------|---------------|
B|---------------|---------------|
G|--7-7-7-7-7-7--|--7-7-7-7-7-7--|
D|--7-7-7-7-7-7--|--7-7-7-7-7-7--|
A|--5-5-5-5-5-5--|--5-5-5-5-5-5--|
E|---------------|---------------|

[ Tab from: http://www.guitartabs.cc/tabs/b/backwards_alphabet/as_of_yet_untitled_tab.html ]
Intro 2x
e|--------------------------------|--------------------------------|
B|--------------------------------|--------------------------------|
G|--------------------------------|--------------------------------|
D|------7-7-5-5-4-4-5-5-4-4-------|------7-7-5-5-4-4-5-5-4-4-------|
A|--5-5---------------------7-7-5-|--------------------------7-7-5-|
E|--------------------------------|--7-7---------------------------|

e|--------------------------------|--------------------------------|
B|--------------------------------|--------------------------------|
G|--------------------------------|--------------------------------|
D|------7-7-5-5-4-4-5-5-4-4-------|------7-7-5-5-4-4-5-5-4-4-5-5s7-|
A|--------------------------7-7-5-|--------------------------------|
E|--5-5---------------------------|--3-3---------------------------|


Verse 2x
  _______________________________________________________________
 | hit then p.m. | hit then p.m. | hit then p.m. |    no p.m.    |
e|---------------|---------------|---------------|---------------|
B|---------------|---------------|---------------|---------------|
G|--7-7-7-7-7-7--|---------------|---------------|---------------|
D|--7-7-7-7-7-7--|--9-9-9-9-9-9--|--7-7-7-7-7-7--|--5-5-5-9-9-7--|
A|--5-5-5-5-5-5--|--9-9-9-9-9-9--|--7-7-7-7-7-7--|--5-5-5-9-9-7--|
E|---------------|--7-7-7-7-7-7--|--5-5-5-5-5-5--|--3-3-3-7-7-5--|


Chorus 2x
e|---------------|---------------|---------------|---------------|
B|---------------|---------------|---------------|---------------|
G|---------------|---------------|---------------|---------------|
D|--4-4-4-4-4-4--|--5-5-5-5-5-5--|--9-9-9-9-9-9--|--7-7-7-7-7-7--|
A|--4-4-4-4-4-4--|--5-5-5-5-5-5--|--9-9-9-9-9-9--|--7-7-7-7-7-7--|
E|--2-2-2-2-2-2--|--3-3-3-3-3-3--|--7-7-7-7-7-7--|--5-5-5-5-5-5--|


Post Chorus
  _______________________________
 | hit then p.m. | hit then p.m  |
e|---------------|---------------|
B|---------------|---------------|
G|--7-7-7-7-7-7--|--7-7-7-7-7-7--|
D|--7-7-7-7-7-7--|--7-7-7-7-7-7--|
A|--5-5-5-5-5-5--|--5-5-5-5-5-5--|
E|---------------|---------------|


Outro 1x
e|--------------------------------|--------------------------------|
B|--------------------------------|--------------------------------|
G|--------------------------------|--------------------------------|
D|------7-7-5-5-4-4-5-5-4-4-------|------7-7-5-5-4-4-5-5-4-4-------|
A|--5-5---------------------7-7-5-|--------------------------7-7-5-|
E|--------------------------------|--7-7---------------------------|

e|--------------------------------|---------------------------------------|
B|--------------------------------|---------------------------------------|
G|--------------------------------|---------------------------------------|
D|------7-7-5-5-4-4-5-5-4-4-------|------7-7-5-5-4-4-5-5-4-4-5-5s7-5p4~~--|
A|--------------------------7-7-5-|------------------------------------5~-|
E|--5-5---------------------------|--3-3----------------------------------|
Comments