Backstreet Boys - Larger Than Life Chords & Tabs

 

Larger Than Life Chords & Tabs

Backstreet Boys Chords & Tabs

Version: 3 Type: Tab 0 ratings
1 star 2 stars 3 stars 4 stars 5 stars
comments

Larger Than Life Tab

От: for www.ultimate-guitar.com 
Кому: 
Тема: New Tabs
Дата: 26 июня 2000 г. 21:40

backstreet boys/larger than life.
 Tabbed by tien sou/tien_sou99@yahoo.com.
  
|-------------------|---------------------5-------|
|-----------1-------|--------1--------------------|
|----2--2-------2---|--0--2-----2----2--------2---|
|-------------------|-----------------------------|
|-------------------|-----------------------------|
|-------------------|-----------------------------|


|-------------------|-----------------------5-----|
|--------1----------|----------1------------------|
|--2--2-------2-----|--0---2-------2----2-------2-|
|-------------------|-----------------------------|
|-------------------|-----------------------------|
|-------------------|-----------------------------|



|-----------------------|-------------------------|
|-------1---------------|-----0-------------------|
|-----------------------|----------------2--------|
|-----------------------|-------------------------|
|-----------------------|-------------------------|
|-----------------------|-------------------------|

                                     verse:

|--------------0---|---------------------------------
|----3----1--------|-----1-----1-----1-----1-----1---
|------------------|---------------------------------
|------------------|---------------------------------
|------------------|---------------------------------
|------------------|---------------------------------
                      1. I    may    run  and    hide
                      2.Look  in     at   the   crowd


|-------------|--------------------------------------
|---1----1----|-----0-----0-----0------------1---1----
|-------------|------------------------2-------------
|-------------|---------------------------------------
|-------------|--------------------------------------
|-------------|--------------------------------------
  when  you're    sceam  in'   my    name___ al-right
  and     I        see  your   bod-y sway   come  on



|-----------------|----------------------------------
|------0----------|---1-----1-----1-----1-----1-----1-
|------------2----|----------------------------------
|-----------------|----------------------------------
|-----------------|----------------------------------
|-----------------|----------------------------------
               but   let    me   tell  you  now  there
                    wish   in    I   could thankyou in



|---------------------------------------------------
|----1------0------0------0-------------1------1----
|-------------------------------2--------------------
|---------------------------------------------------
|---------------------------------------------------
|----------------------------------------------------
    are    pric   es     to   fame__     al  right
     a      dif   fer   ent    way__    come  on


[ Tab from: http://www.guitartabs.cc/tabs/b/backstreet_boys/larger_than_life_tab_ver_3.html ]
|---------------0------------------------------------
|------3----1---------3------1-------0------3-----1--
|----------------------------------------------------
|----------------------------------------------------
|----------------------------------------------------
|----------------------------------------------------
      all  of  our   time  spent___  in   flash - es__
cause all  of  your  time  spent___       keeps   us__



|---0-------0--------0-------0-----|---0-----0-----0--
|-------3------3---------3------1--|------------------
|----------------------------------|------------------
|----------------------------------|------------------
|----------------------------------|------------------
|----------------------------------|------------------
  of  light....____________________   all   you   peo
   a - live....____________________



|------0-------0-------------------------------------
|--------------------1------3-----3------1------1----
|----------------------------------------------------
|----------------------------------------------------
|----------------------------------------------------
|----------------------------------------------------
     -ple    cant   you    see   cant    you   see



|------0-------0-------0--------0--------0-----------
|----------------------------------------------1-----
|----------------------------------------------------
|----------------------------------------------------
|----------------------------------------------------
|----------------------------------------------------
      how____ your   love's      af      fect   ing



|-----------------------------------------------------
|------1-------1------3-------1-------1---------------
|-----------------------------------------------------
|-----------------------------------------------------
|-----------------------------------------------------
|-----------------------------------------------------
      our     re     al      i       ty ?




|-----0--------0-------0--------------------0-------
|--------------------------------1------------------
|---------------------------------------------------
|---------------------------------------------------
|---------------------------------------------------
|---------------------------------------------------
       Ev    'ry      time       we're    down,



|----------------------------------------------------
|-----3--------3--------3-------1-------1------------
|-----------------------------------------------0----
|----------------------------------------------------
|----------------------------------------------------
|----------------------------------------------------
     you      can     make      it     right    and



-----------------0-----------------------------------
-----3-----1--------------3-------1---------0------1-
-----------------------------------------------------
-----------------------------------------------------------------------------------------------------------
-----------------------------------------------------
  that   makes   you    larg    er___      than  life



  note: continue with the second verse and the chorus
to end the song,i hope you like the song. 
:: Ultimate Guitar Archive :: 
http://www.ultimate-guitar.com 

Comments