Backstreet Boys - Larger Than Life Chords & Tabs

 

Larger Than Life Chords & Tabs

Backstreet Boys Chords & Tabs

Version: 1 Type: Bass Tab 0 ratings
1 star 2 stars 3 stars 4 stars 5 stars
comments

Larger Than Life Bass Tab

 +Song:       Larger than Life
 +Artist:     Backstreet Boys
 +Album:      Millennium
 +Tabbed By:  Neal Conway - Damnsaxon@aol.com
 +Member of the Bass Tab Archive Tabbing Army (www.basstabarchive.com)         
 ----------------------------------------------
 
 (after yell):
   
 G-------------------------------------------------------------
 D-------------------------------------------------------------
 A-3--3--3-3--1-1-1--0-----0--0--0--1--1--1--3-----------------
 E-------------------------------------------------------------
[ Tab from: http://www.guitartabs.cc/tabs/b/backstreet_boys/larger_than_life_btab.html ]
 Verse:
     
 G----------------------------------        
 D----------------------------------     4 times
 A---3--3--3-3--1-1-1--0------------
 E----------------------------------

 G----------------------------------
 D----------------------------------
 A--3--3--3--5--5--5--3--3--3--5----
 E----------------------------------

 Chorus:
   
 G--------------------------
 D--------------------------             3 times  
 A---3--3--3-3--1-1-1--0----
 E--------------------------

 G--------------------------
 D--------------------------
 A-0--0--0--1--1--1--3------
 E--------------------------

  ----------------------------------
  this shouldnt be very hard to figure out. enjoy.
  ------------------------------------------------------------       
  this was a request, im not a BSB fan
  ----------------------------------


Comments