Backstreet Boys - I Wanna Be With You Chords & Tabs

 

I Wanna Be With You Chords & Tabs

Backstreet Boys Chords & Tabs

Version: 1 Type: Bass Tab 0 ratings
1 star 2 stars 3 stars 4 stars 5 stars
comments

I Wanna Be With You Bass Tab

----------------------------------------------------------------------------
-------------------| 
------- /--\ /--\ |\  ||\   |--\ /--\/---\ | /--\ |\  |/--\\  //---\
--------------------------| 
------- | __ |__/ | \ || \  |__/ |__/  |   | |  | | \ ||__/ \/   |
----------------------------| 
------- |  | |    |  \||--\ |  \ |     |   | |  | |  \||    /\   | ------- By
-----------------| 
------- \__/ \__/ |   \|   \|   \\__/  |   | \--/ |   \\__//  \  | - GENARO
"ORANGE" DESIA ----| 
--------------------------------------------------------------------
ORANGEGDC@HOTMAIL.COM ----| 
----------------------------------------------------------------------------
-------------------| 
ARTIST: BACKSTREET'S BOYS 
ALBUM:  BACKSTREET'S BOYS 
SONG:   I WANNA BE WITH YOU 

BASS TAB 
[ Tab from: http://www.guitartabs.cc/tabs/b/backstreet_boys/i_wanna_be_with_you_btab.html ]
   O-o-O-o-O-o-O-o     O-o-O-o-O-o-O-o 
G-------------------|-------------------| 
D-------------------|------------------*| 
A--0---0---0-----0--|--------0---------*| 
E--------------4----|--3---4---3--------| 

   O-o-O-o-O-o-O-o     O-o-O-o-O-o-O-o 
G-------------------|-------------------| 
D-------------------|-------------------| 
A----------0--------|--------0----------| 
E--6---6-------4-0--|--1---3---1--------| 

   O-o-O-o-O-o-O-o     O-o-O-o-O-o-O-o 
G-------------------|-------------------| 
D-------------------|-------------------| 
A----------0--------|-------------------| 
E--6---6-------4-0--|--1----------------| 
  

THIS RIFF IS POWERFUL, I INVITE YOU TO 
LISTEN IT IF YOU HADN'T. 
IT'S GOOD TO PLAY WITH TO MUCH DISTORSION 
LIKE A HEAVY METAL PIECE. 
  

SEND ME AN E-MAIL IF YOU WANNA A DRUM SIMULATOR, IF YOU DON'T HAVE ONE I'LL
SEND YOU ONE. 
----------------------------------------------------------------------------
--------------- 
 PLEASE:  I'M LOOKING FOR THE "BILLIE JEAN" FULL GUITAR TAB 
              AND HUMAN NATURE CHORDS. 
----------------------------------------------------------------------------
--------------- 


Comments