Backstreet Boys - Everybody Chords & Tabs

 

Everybody Chords & Tabs

Backstreet Boys Chords & Tabs

Version: 1 Type: Bass Tab 0 ratings
1 star 2 stars 3 stars 4 stars 5 stars
comments

Everybody Bass Tab

   
Backstreet Boys-"Everybody (Backstreet's Back)" from the album
Backstreet's Back
Tabbed by Matt Corkum (radiohead98@yahoo.com)

Key:
s: slide
h: hammer-on


This is played on the bass. It is tuned up half a step (up 1/2 step). I
have tabbed it our for basses tuned up and look below for the normal
tuning tab. The bass is overdriven.


Intro:

G#|--------------------------------------------|
D#|--------------------------------------------|
A#|---0----------------------0-----------------|
F |----------1---0------------------1----0-----|

G#|----------------------------------------------------------|
D#|----------------------------------------------------------|
A#|---0-------------------------0----------------------------|
F |---------1---------0------------1------------0------------|


Verse:

G#|-----------------------| Do this twice, then pause...
D#|-----------------------|
A#|-----------------------|
F |--5-5s4-3s2-1-1-1h3-0--|

Pause: "Oh my God, we're back again
Then come back in with the end of the riff:
[ Tab from: http://www.guitartabs.cc/tabs/b/backstreet_boys/everybody_btab.html ]
G#|-----------|
D#|-----------|
A#|-----------|
F |--1-1h3-0--|

That's pretty much the basics. There are some variations, but you can
mess around with the riff and figure `em out. Now for the tab for
regular tuning:

Intro:

G|--------------------------------------------|
D|--------------------------------------------|
A|---1----------------------1-----------------|
E|----------2---1-------------------2----1-----|

G|-----------------------------------------------------------|
D|-----------------------------------------------------------|
A|---1--------------------------1----------------------------|
E|----------2---------1------------2------------1------------|


Verse:

G|-----------------------| Do this twice, then pause...
D|-----------------------|
A|-----------------------|
E|--6-6s5-4s3-2-2-2h4-1--|

Pause: "Oh my God, we're back again"
Then come back in with the end of the riff:


G|------------|
D|------------|
A|------------|
E|---2-2h4-1--|

That's it! You can find lyrics at any BSB site (like
http://www.backstreetboys.com/), so I figured I wouldn't include them.
Mail me with thoughts, corrections, no flames please.

Comments