Backseat Confusion - Big Birch Remix Chords & Tabs

 

Big Birch Remix Chords & Tabs

Backseat Confusion Chords & Tabs

Version: 1 Type: Tab 0 ratings
1 star 2 stars 3 stars 4 stars 5 stars
comments

Big Birch Remix Tab

		          “Big Birch Remix”


E   ||----------------------------|---------------------------|
B   ||----------------------------|---------------------------|
G   ||----------------------------|---------------------------|
D   ||----------------------------|---------------------------|
A   ||----------------------------|---------------------------| 
E   ||------0--0-2--2-3--3--2--0--|-----0--0-2--2-3--3--2--0--|

E   ||-----3-----3------3---------|---------------------------|
B   ||-----3-----3------3---------|-----3------3-----3--------|
G   ||----------------------------|-----0------0-----0--------|
D   ||----------------------------|---------------------------|
A   ||----------------------------|---------------------------| 
E   ||--0------2-----3----3--2--0-|--0------2-----3----3--2--0|

E   ||-----3-----3------3---------|---------------------------|
B   ||-----3-----3------3---------|-----3------3-----3--------|
G   ||----------------------------|-----0------0-----0--------|
D   ||----------------------------|---------------------------|
A   ||----------------------------|---------------------------| 
E   ||--0------2-----3----3--2--0-|--0------2-----3----3--2--0|

[ Tab from: http://www.guitartabs.cc/tabs/b/backseat_confusion/big_birch_remix_tab.html ]
E   ||3-3-3-3-3-3-3-3-3-3-3-3-----|3-3-3-3-3-3-3-3-3-3-3-3----|
B   ||3-3-3-3-3-3-3-3-3-3-3-3-----|3-3-3-3-3-3-3-3-3-3-3-3----|
G   ||0-0-0-0-0-0-0-0-0-0-0-0-----|0-0-0-0-0-0-0-0-0-0-0-0----|
D   ||0-0-0-0-0-0-0-0-0-0-0-0-----|0-0-0-0-0-0-0-0-0-0-0-0----|
A   ||0-0-0-0-0-0-0-0-0-0-0-0-----|0-0-0-0-0-0-0-0-0-0-0-0----|
E   ||0-0-0-0-2-2-2-2-3-3-3-3-320-|0-0-0-0-2-2-2-2-3-3-3-3-320|

E   ||-----3-----3------3---------|---------------------------|
B   ||-----3-----3------3---------|-----3------3-----3--------|
G   ||----------------------------|-----0------0-----0--------|
D   ||----------------------------|---------------------------|
A   ||--0------2-----3----3--2--0-|--0------2-----3----3--2--0| 
E   ||----------------------------|---------------------------|

E   ||-----3-----3------3---------|---------------------------|
B   ||-----3-----3------3---------|-----3------3-----3--------|
G   ||----------------------------|-----0------0-----0--------|
D   ||----------------------------|---------------------------|
A   ||--0------2-----3----3--2--0-|--0------2-----3----3--2--0| 
E   ||----------------------------|---------------------------|


E   ||3-3-3-3-3-3-3-3-3-3-3-3-----|3-3-3-3-3-3-3-3-3-3-3-3----|
B   ||3-3-3-3-3-3-3-3-3-3-3-3-----|3-3-3-3-3-3-3-3-3-3-3-3----|
G   ||0-0-0-0-0-0-0-0-0-0-0-0-----|0-0-0-0-0-0-0-0-0-0-0-0----|
D   ||0-0-0-0-0-0-0-0-0-0-0-0-----|0-0-0-0-0-0-0-0-0-0-0-0----|
A   ||0-0-0-0-0-0-0-0-0-0-0-0-----|0-0-0-0-0-0-0-0-0-0-0-0----|
E   ||0-0-0-0-2-2-2-2-3-3-3-3-320-|0-0-0-0-2-2-2-2-3-3-3-3-320|
				And so forth.

                 Music created and tabbed by Nick Nohner
Comments