Back Stabbers - Animals Chords & Tabs

 

Animals Chords & Tabs

Back Stabbers Chords & Tabs

Version: 1 Type: Tab 0 ratings
1 star 2 stars 3 stars 4 stars 5 stars
comments

Animals Tab

verse
E|--------------|--------------|--------------|--------------|
B|--------------|--------------|--------------|--------------|
G|--------------|--------------|--------------|--------------|
D|--------------|--------------|--------------|--------------| x4
A|--------------|--------------|-3-3-3--3-3-3-|-5-5-5--5-5-5-|
E|-3-3-3--3-3-3-|-2-2-2--2-2-2-|--------------|--------------|

chorus
E|--------------|--------------|--------------|--------------|
B|-5-5-5--5-5-5-|-4-4-4--4-4-4-|--------------|--------------|
G|-5-5-5--5-5-5-|-4-4-4--4-4-4-|-5-5-5--5-5-5-|-2-2-2--2-2-2-|
D|-3-3-3--3-3-3-|-2-2-2--2-2-2-|-5-5-5--5-5-5-|-2-2-2--2-2-2-|(break for lyrics)x4
A|--------------|--------------|-3-3-3--3-3-3-|-0-0-0--0-0-0-|
E|--------------|--------------|--------------|--------------|

verse
E|--------------|--------------|--------------|--------------|
B|--------------|--------------|--------------|--------------|
G|--------------|--------------|--------------|--------------|
D|--------------|--------------|--------------|--------------| x4
A|--------------|--------------|-3-3-3--3-3-3-|-5-5-5--5-5-5-|
E|-3-3-3--3-3-3-|-2-2-2--2-2-2-|--------------|--------------|


chorus
E|--------------|--------------|--------------|--------------|
B|-5-5-5--5-5-5-|-4-4-4--4-4-4-|--------------|--------------|
G|-5-5-5--5-5-5-|-4-4-4--4-4-4-|-5-5-5--5-5-5-|-2-2-2--2-2-2-|
D|-3-3-3--3-3-3-|-2-2-2--2-2-2-|-5-5-5--5-5-5-|-2-2-2--2-2-2-|(break for lyrics)x4
A|--------------|--------------|-3-3-3--3-3-3-|-0-0-0--0-0-0-|
E|--------------|--------------|--------------|--------------|
[ Tab from: http://www.guitartabs.cc/tabs/b/back_stabbers/animals_tab.html ]
verse
E|--------------|--------------|--------------|--------------|
B|--------------|--------------|--------------|--------------|
G|--------------|--------------|--------------|--------------|
D|--------------|--------------|--------------|--------------| x4
A|--------------|--------------|-3-3-3--3-3-3-|-5-5-5--5-5-5-|
E|-3-3-3--3-3-3-|-2-2-2--2-2-2-|--------------|--------------|


chorus
E|--------------|--------------|--------------|--------------|
B|-5-5-5--5-5-5-|-4-4-4--4-4-4-|--------------|--------------|
G|-5-5-5--5-5-5-|-4-4-4--4-4-4-|-5-5-5--5-5-5-|-2-2-2--2-2-2-|
D|-3-3-3--3-3-3-|-2-2-2--2-2-2-|-5-5-5--5-5-5-|-2-2-2--2-2-2-|(break for lyrics)x4
A|--------------|--------------|-3-3-3--3-3-3-|-0-0-0--0-0-0-|
E|--------------|--------------|--------------|--------------|


verse
E|--------------|--------------|--------------|--------------|
B|--------------|--------------|--------------|--------------|
G|--------------|--------------|--------------|--------------|
D|--------------|--------------|--------------|--------------| x4
A|--------------|--------------|-3-3-3--3-3-3-|-5-5-5--5-5-5-|
E|-3-3-3--3-3-3-|-2-2-2--2-2-2-|--------------|--------------|


chorus
E|--------------|--------------|--------------|--------------|
B|-5-5-5--5-5-5-|-4-4-4--4-4-4-|--------------|--------------|
G|-5-5-5--5-5-5-|-4-4-4--4-4-4-|-5-5-5--5-5-5-|-2-2-2--2-2-2-|
D|-3-3-3--3-3-3-|-2-2-2--2-2-2-|-5-5-5--5-5-5-|-2-2-2--2-2-2-|(break for lyrics)x4
A|--------------|--------------|-3-3-3--3-3-3-|-0-0-0--0-0-0-|
E|--------------|--------------|--------------|--------------|


outro
E|--------------|--------------|--------------|--------------|
B|--------------|--------------|--------------|--------------|
G|--------------|--------------|--------------|--------------|
D|--------------|--------------|--------------|--------------|(make end note last till the end)
A|--------------|--------------|-3-3-3--3-3-3-|-5------------|
E|-3-3-3--3-3-3-|-2-2-2--2-2-2-|--------------|--------------|
Comments