Bachman Turner Overdrive - You Aint Seen Nothing Yet Chords & Tabs

 

You Aint Seen Nothing Yet Chords & Tabs

Bachman Turner Overdrive Chords & Tabs

Version: 2 Type: Tab 0 ratings
1 star 2 stars 3 stars 4 stars 5 stars
comments

You Aint Seen Nothing Yet Tab

   
I figured this out after watching Randy Bachman live. Everything you need to play the
song is here except the solo but i suggest jamming over it, it isnt very hard.
[ Tab from: http://www.guitartabs.cc/tabs/b/bachman_turner_overdrive/you_aint_seen_nothing_yet_tab_ver_2.html ]
INTRO/VERSE
E/----555-555--5-5--333--222-2-2--|
B/----555-555--5-5--333--333-3-3--|
G/----666-666--6-6--444--222-2-2--|
D/----777-777--7-7--555--000-0-0--|
A/----777-777--7-7--555--000-0-0--|
E/----555-555--5-5--333--xxx-x-x--|


PRE-CHORUS
E/-2--1--3--|
B/-3--1--3--|
G/-2--2--4--|
D/-0--3--5--|
A/-0--3--5--|
E/-x--1--3--|

E/-9--9--9--7--10-|
B/-10-9--10-7--7--|
G/-9--9--11-7--9--|
D/-11-9--11-7--7--|
A/-12-11-9--9--7--|
E/-9--9--9--7--7--|

CHORUS

E/-------|
B/---9-7-|
G/---7-7-|
D/-7-7-5-|
A/-7-----|
E/-5-----|
Comments