Bachman Turner Overdrive - Taking Care Of Business Chords & Tabs

 

Taking Care Of Business Chords & Tabs

Bachman Turner Overdrive Chords & Tabs

Version: 2 Type: Tab 1 rating
1 star 2 stars 3 stars 4 stars 5 stars
comments

Taking Care Of Business Tab

BTO - Taking Care Of Business

Listen to Song For exact timiing and rythem
[ Tab from: http://www.guitartabs.cc/tabs/b/bachman_turner_overdrive/taking_care_of_business_tab_ver_2.html ]
INTRO
|----------------|-----------------|----------------------------------------|
|----------------|-----------------|----------------------------------------|
|----------------|-----------------|----------------------------------------|
|----------------|-----------------|-10-12-10-10-12-10~-10-12-10-10-10-12/10|
|-10-12-10-10-12-|-8-8-10-8-8-8-10-|--8--8--8--8--8--8~--8--8--8--8--8--8---|
|--8--8--8--8--8-|-6-6--6-6-6-6--6-|----------------------------------------|

LEAD FILL
Only do slide first time
|-5/12--12-12-12-12----------------|-5-5-5-5--------------|
|-4/11--11-11-11-11--8-------------|-4-4-4-4--6-----------|
|-5/12--12-12-12-12--8-8/9---------|-5-5-5-5--6-6/7-------|
|--------------------------10-8-10-|----------------8-6-8-|
|----------------------------------|----------------------|
|----------------------------------|----------------------|

Verse:
Play INTRO

Chorus:
Play INTRO
Comments