Bachman Turner Overdrive - Taking Care Of Business Chords & Tabs

 

Taking Care Of Business Chords & Tabs

Bachman Turner Overdrive Chords & Tabs

Version: 1 Type: Tab 0 ratings
1 star 2 stars 3 stars 4 stars 5 stars
comments

Taking Care Of Business Tab

   
-------------------------------------------------------------------------------
                   Bachman Tuner Overdrive - Taking Care Of Business
-------------------------------------------------------------------------------

Tabbed by: ZeroisGreatMan
Tuning: EABGBe

Main Riff:
e|-------------------------------------------|
B|-------------------------------------------|
G|-5-5-5-5-5-5----3-3-3-3-3-3----------------|
D|-5-5-5-5-5-5----3-3-3-3-3-3----3-3-3-3-3-3-|
A|-3-3-3-3-3-3----1-1-1-1-1-1----3-3-3-3-3-3-|
E|-------------------------------1-1-1-1-1-1-|

Bridge: "Take good care, Of my buisness"
e|--------------------------------|
B|--------------------------------|
G|-5-5-5-5--10-10----8-8-8-8--3-3-|
D|-5-5-5-5--10-10----8-8-8-8--3-3-|(x4)
A|-3-3-3-3--8--8-----6-6-6-6--1-1-|
E|--------------------------------|

[Lyrics]
[ Tab from: http://www.guitartabs.cc/tabs/b/bachman_turner_overdrive/taking_care_of_business_tab.html ]
You wake up every morning from the alarm clocks warning,
And take the 8:15 to the city.
There's a whistle up above and people pushing people shoving,
And girls, who try to look pretty.
And if your trains on time, you can get to work by 9.
And start your slaving job and get your pay.
If you ever get annoyed, look at me I'm self employed,
I love to work at nothing all day.  And I'll be...

Taking care of buisness, every day.
Taking care of buisness, every way.
I've been taking care fo buisness, it's all mine.
Taking care of buisness, and working over time, work out.

It's as easy as fishin', you can be a musican.
If you can make sounds that are mellow.
Get a second hand guitar, chances are you'll go far,
If you hangin out with the right bunch of fellows.
People will see you having fun, just lying in the sun.
Tell them that you like it this way.
It's the work that we avoid, and we're all self employed,
We love to work at nothing all day.  And I'll be...

Taking care of buisness, every day.
Taking care of buisness, every way.
I've been taking care fo buisness, it's all mine.
Taking care of buisness, and working over time, work out.

Take good care of my buisness, every day, while I'm away.



| /  slide up
| \  slide down
| h  hammer-on
| p  pull-off
| ~  vibrato
| +  harmonic
| x  Mute note

===============================================================================
Comments