Bachman Turner Overdrive - Taking Care Of Business Chords & Tabs

 

Taking Care Of Business Chords & Tabs

Bachman Turner Overdrive Chords & Tabs

Version: 3 Type: Bass Tab

Taking Care Of Business Bass Tab

   
TAKING CARE OF BUSINESS
BTO

RIFF A:
G|---------------------------------------------------------------------------|
D|-----------------------------10-12-10-10-10--------------------------------|
A|-10-12-10-10-10--8-10-8-8-8------------------10-12-10-10-10----------------|
E|---------------------------------------------------------------------------|
[ Tab from: http://www.guitartabs.cc/tabs/b/bachman_turner_overdrive/taking_care_of_business_btab_ver_3.html ]
RIFF B:
G|---------------------------------------------------------------------------|
D|----------------------------------------10-12-10-10-10-12-10---------------|
A|-10-12-10-10-10-12-10--8-10-8-8-8-10-8-------------------------------------|
E|---------------------------------------------------------------------------|

G|---------------------------------------------------------------------------|
D|---------------------------------------------------------------------------|
A|-10-12-10-10-10-12-10------------------------------------------------------|
E|---------------------------------------------------------------------------|