Bachman Turner Overdrive - Taking Care Of Business Chords & Tabs

 

Taking Care Of Business Chords & Tabs

Bachman Turner Overdrive Chords & Tabs

Version: 2 Type: Bass Tab 0 ratings
1 star 2 stars 3 stars 4 stars 5 stars
comments

Taking Care Of Business Bass Tab

-----------------------------------------------------------------------------
            Taking Care of Business - Bachman Turner Overdrive
-----------------------------------------------------------------------------

Tabbed By : Adam
e-mail: Iampinkfloyd@hotmail.com

Tuning:Standard

A truly great song, from a great Canadian band. Very catchy, and fun to play.

Verse:

G||-----------------------|------------------------|
D||-----------------------|------------------------|
A||--3--------------------|--1---------------------|
E||-------5----3--3--5----|-------3----1--1--3--2--|

|-------------------------|-----------------------|
|-------------------------|-----------------------|
|---------3--3--5--3------|-3---------------------|
|1--3/-5------------------|-----5----3--3--5--3---|

Fill after "try to look pretty" and "bunch of fellows" 1st and 2nd verse 
respectively

Fills bar 4                Fills Bar 1
----------------5-------|--5--------------------|
------------5-----7--5--|-------7----5----------|
-3----5/-7--------------|-----------------7/-3--|
------------------------|-----------------------|

continue with the last 3 bars of verse riff, repeat verse in its entirety.

Chorus: Same as verse (no fills.)

Bridge: 1st 3 bars of verse, bass fill 2, last 3 bars  of verse
[ Tab from: http://www.guitartabs.cc/tabs/b/bachman_turner_overdrive/taking_care_of_business_btab_ver_2.html ]
Bass Fill 2 

-------------------------|------------------------|
-------------5--5--------|-------7----5--5--------|
--3----5/-7--------7/-5--|--3---------------7/-3--|
-------------------------|------------------------|

Repeat (verse, chorus, bridge=solo 2nd time)

Interlude

                              Repeat  x1
-------------------|-------------------|
--------3--3--3----|--1--1-------------|
--3--3-------------|--------1--1--1----|
-------------------|-------------------|

Solo:

Verse x1

then
|--5--5-------------------|--3--3-------------------|
|--------7----5--5--7--5--|--------5----3--3--5--4--|
|-------------------------|-------------------------|
|-------------------------|-------------------------|

-------------------------|--------------------------|
--3--3-------------------|--------------------------|
--------5----3--3--5--4--|--3--3-----------------3--|
-------------------------|--------5--5--3--3--5-----|

3rd Verse (same as first 2)

Breakdown:

                         1st ending   2nd ending     
--------|--------|--------|--------|------------------------|
--------|--------|--------|--------|---------3--2-----3-----|
--3--3--|--1--1--|--------|--3--3--|--3------------3--------|
--------|--------|--1--1--|--------|---------------------3--|


Outro: Verse until end.
 
Enjoy.
Comments