Bachman Turner Overdrive - Second Hand Chords & Tabs

 

Second Hand Chords & Tabs

Bachman Turner Overdrive Chords & Tabs

Version: 1 Type: Tab 0 ratings
1 star 2 stars 3 stars 4 stars 5 stars
comments

Second Hand Tab

Tabbed by:Unkabonka
Tuning: EADGBE

Here is part of the intro to "Second Hand" on the Not Fragile album. I tabbed it on an
acoustic so it may not be perfect, so just use it as a guide.
This part is used during the intro and verses:
[ Tab from: http://www.guitartabs.cc/tabs/b/bachman_turner_overdrive/second_hand_tab.html ]
e|-----------------------------------|
B|-----------------------------------|
G|-----------------------------------|
D|-4-4---7----4-4---12---------------|
A|-4-4---7----4-4---12-------repeat--|
E|-2-2---9----2-2---10---------------|

This part is incomplete, its probably on a differnt string and power chords but this is 
start of the chorus.
e|-------------------------------|
B|-------------------------------|
G|-------------------------------|
D|-------------------------------|
A|-------------------------------|
E|-3--1--3--6--3--1--3--8--????--|
Comments