Bachman Turner Overdrive - Not Fragile Chords & Tabs

 

Not Fragile Chords & Tabs

Bachman Turner Overdrive Chords & Tabs

Version: 1 Type: Tab 0 ratings
1 star 2 stars 3 stars 4 stars 5 stars
comments

Not Fragile Tab

here is the tab to all you bto fans
[ Tab from: http://www.guitartabs.cc/tabs/b/bachman_turner_overdrive/not_fragile_tab.html ]
|-------------------------------------------------------------------------|
|-------------------------------------------------------------------------|
|-------------------------------------------------------------------------|
|------------3------------------------------------------------------------|
|--5-5-5-5-5-1-3-5--------------------------------------------------------|
|--3-3-3-3-3---1-3--------------------------------------------------------|



|-------------------------------------------------------------------------|
|-------------------------------------------------------------------------|
|-------------------------------------------------------------------------|
|------------5-3----------------------------------------------------------|
|--5-5-5-5-5-3-1-3-5------------------------------------------------------|
|--3-3-3-3-3-----1-3------------------------------------------------------|
Comments