Bachman Turner Overdrive - Four Wheel Drive Chords & Tabs

 

Four Wheel Drive Chords & Tabs

Bachman Turner Overdrive Chords & Tabs

Version: 2 Type: Tab

Four Wheel Drive Tab

   
You have to hear this song!!!!! It has a real cool riff and the drums are crazy!
Part 1. Distorted guitar, cords, repeat twice.

  A5  D5 G5       D5  A5
         Let ring
e|-------x--|--x---------|
b|----3--3--|--3--3------|
g|-2--2--0--|--0--2---2-.|
d|-2--0--0--|--0--0---2-.|
a|-0-----0--|--0------0--|
E|-------3--|--3---------|

Part 2. Distorted Guitar, lots of palm muting.
[ Tab from: http://www.guitartabs.cc/tabs/b/bachman_turner_overdrive/four_wheel_drive_tab_ver_2.html ]
  A5    E5     A5           E5
|-------------------------------|
|-------------------------------|
|-2-2----------2-2-2-----------.|
|-2-2---2-2----2-2-2-------x-2-.|
|-0-0---2-2----0-0-0--^----x-2--|
|-------0-0--3-------3-(4)-x-0--|

Repeat this until 26 seconds into the song the there is this.

   G5 D5
|--x--2--|
|--3--3--|
|--0--2--|
|--0--0--|
|--0-----|
|--3-----|

The chourses are the same as Part 1.

During the solo, the rythym guitar is doing Part 2.

I've given you the basic outline, use your noggin and listen to the song a few hundred times. Good Luck,
 
                                  Sheldon and Eric W.