Bachman Tal - Shes So High Chords & Tabs

 

Shes So High Chords & Tabs

Bachman Tal Chords & Tabs

Version: 1 Type: Tab 0 ratings
1 star 2 stars 3 stars 4 stars 5 stars
comments

Shes So High Tab

#----------------------------------PLEASE NOTE--------------------------------#
#This file is the author's own work and represents their interpretation of the#
#song. You may only use this file for private study, scholarship, or research.#
#-----------------------------------------------------------------------------#
#-- File created with Instab - http://www.pconline.com/~smcarey/instab.html --#
#-----------------------------------------------------------------------------#

Author/Artist: Tal Bachman
Title: She's So High
Transcribed by: Joey R. Hill
Email: joey_hill@hotmail.com

This Sounds Pretty Close On My Acoustic Guitar, But
I Have Only Tabbed The Song Up To The Chorus 
Because That's All I Have Figured Out So Far. I Didn't 
Include The Time Signature, So Listen To The Cd To
Figure It Out. Also, You Will Notice I Used D Major To
Break The Verses, You Will Hear It When You Listen
To The Cd. I Fingerpick The Breaks And Palm Mute
The Verses.

Good Luck And Enjoy!
[ Tab from: http://www.guitartabs.cc/tabs/b/bachman_tal/shes_so_high_tab.html ]
-|-----5-7-5---5-7-9-7-5|-----------------------|2|-----------------------|---
-|---5-------5----------|-----------------------|3|-----------------------|---
-|-7--------------------|-----------------------|2|-----------------------|---
-|----------------------|-12-12-12--9-9-9--7-7-7|0|-12-12-12--9-9-9--7-7-7|---
-|----------------------|-12-12-12--9-9-9--7-7-7|-|-12-12-12--9-9-9--7-7-7|---
-|----------------------|-----------------------|-|-----------------------|---
                                                                              

-|2|-------------|------------------------------------------------------------
-|3|-------------|------------------------------------------------------------
-|2|-------------|------------------------------------------------------------
-|0|-7-7-7--5-5-5|------------------------------------------------------------
-|-|-7-7-7--5-5-5|------------------------------------------------------------
-|-|-------------|------------------------------------------------------------
                                                                              

Comments