Bach Johann Sebastian - Violin Concerto In Dm Chords & Tabs

 

Violin Concerto In Dm Chords & Tabs

Bach Johann Sebastian Chords & Tabs

Version: 1 Type: Tab 0 ratings
1 star 2 stars 3 stars 4 stars 5 stars
comments

Violin Concerto In Dm Tab

This is only the first part of the piece, but hey, itz better than nutn rite? = )


J.S. Bach    Concerto Dm


E|---------------------------------------------------------------]
B|------------------15--14---------------------------------------]
G|-----------12-14----------14------12----------17----16-14-16---]
D|--12-14-15--------------------14------16--12-------------------]
A|---------------------------------------------------------------]
E|---------------------------------------------------------------]

E|---------------------------------------------------------------]
B|---------------------------------------------------------------]
G|--------------15-14-15-----------------------------------------]
D|--17--14--17------------17------17----15----14-----------------]
A|----------------------------17--------------------17-16-17-----]
E|---------------------------------------------------------------]
[ Tab from: http://www.guitartabs.cc/tabs/b/bach_johann_sebastian/violin_concerto_in_dm_tab.html ]
E|---------------------------------17--16------------------------]
B|--------------------------15-17----------17--------15----14----]
G|-----------------14-16-17---------------------16-------------14]
D|--14-15-14-15-17-----------------------------------------------]
A|---------------------------------------------------------------]
E|---------------------------------------------------------------]

E|--15---14-12-14-----------------13-12-13--------12-13-12-------]
B|-----------------15---12---15--------------15------------------]
G|---------------------------------------------------------------]
D|---------------------------------------------------------------]
A|---------------------------------------------------------------]
E|---------------------------------------------------------------]

E|---------------------------------------------------------------]
B|--15--13--12---------------------------------------------------]
G|---------------14----------------------------------------------]
D|---------------------------------------------------------------]
A|---------------------------------------------------------------]
E|---------------------------------------------------------------]

E|------------------------------------------------------------]
B|------------------------------------------------------------]
G|------------------------------------------------------------]
D|------------------------------------------------------------]
A|------------------------------------------------------------]
E|------------------------------------------------------------]
Comments