Bach Johann Sebastian - Tocatta And Fugue In D Minor Complete Chords & Tabs

 

Tocatta And Fugue In D Minor Complete Chords & Tabs

Bach Johann Sebastian Chords & Tabs

Version: 1 Type: Tab 1 rating
1 star 2 stars 3 stars 4 stars 5 stars
comments

Tocatta And Fugue In D Minor Complete Tab

   
                     TOCCATTA AND FUGUE IN D MINOR 
                      As recorded by Johann Sebastian Bach

Ok so here is the craziest song of all time. It's in its entirety
( I got it from powertab)
Enjoy!

NOTES:
     - This version was done in slow tempo with like 64th notes,
so the tempo can be taken with a grain of salt.

     - Play the notes through slowly so you know what speed they're
supposed to be at, putting in the note length would take too damn long.

TUNING: DROPPED D (DADGBE)

LEGEND:

14~~ = Vibrato
(0)  = Let ring over suggested notes
^3
^0   = Arpeggio Strum (slowly)
^2
^3
8h12 = Hammer on
12p8 = Pull off
12t5 = Tap

Toccata

Tempo=50
Timing =  4/4

         ~~                ~~        ~~         ~~
|-17-15-17-15--------------------------------------|
|-------------18-17-15----15-----------------------|
|----------------------18-----14-12-14-9-10--------|
|-------------------------------------------11-12--|
|--------------------------------------------------|
|--------------------------------------------------|


         ~~                ~~
|-----------------------------------------------------0---|
|---------------------------------------------------------|
|-------------------------------------------------6-------|
|-----------------------------^0----------5---8-----------|
|-12-10-12-10-----------------^0--4---7-------------------|
|-------------15-14-12-11-12--^0-(0)-(0)-(0)-(0)-(0)-(0)--|


                     Q=120
 4/4
            ~
|------------------|---------------------------------------------|
|-^3--(3)----------|---------------------------------------------|
|-^0--(0)----------|---------------------------------------------|
|-^0--(0)-2-4------|-----------------------3-5---3-5---3-5---3-5-|
|----------------4-|-5-7-4-5-7-4-5-7-4-5-7-----7-----7-----7-----|
|------------------|---------------------------------------------|


|-------------------------------|
|-------------------------------|
|----------------------------6--|
|-7-8----7-8----7-8----7--------|
|-----10-----10-----10----------|
|-------------------------------|


 4/4
|---------------------------------------------|
|-----------------------6-8---6-8---6-8---6-8-|
|-7-9-6-7-9-6-7-9-6-7-9-----9-----9-----9-----|
|---------------------------------------------|
|---------------------------------------------|
|---------------------------------------------|


|----------------------------------------|
|-10-11----10-11----10-11----10-----10---|
|-------12-------12-------12-------------|
|----------------------------------------|
|----------------------------------------|
|----------------------------------------|


 4/4
     T      T      T      T      T      T      T      T
|---------------------------------------------------------|
|-8-11p5h8-11p5h6-10p3h6-10p3h5---------------------------|
|-------------------------------12p5h9-12p5h7-10p3h7-10p3h|
|---------------------------------------------------------|
|---------------------------------------------------------|
|---------------------------------------------------------|


    T     T      T      T      T      T     T     T
|------------------------------------------------------|
|------------------------------------------------------|
|-5-9p2h5-9p2h3----------------------------------------|
|---------------12p5h8-12p5h7-10p3h7-10p7p5-8p2h5-8p2h=|
|------------------------------------------------------|
|------------------------------------------------------|


           H.=H                 Q=40  Q=85                          H.=H
 4/4
     T      T      T      T
|-----------------------------------|-----6-5-3---0-------------0-3------0-|
|-----------------------------------|-^5--------6---3-2-0-2---2-----5tr6---|
|-----------------------------------|-^3--------------------2--------------|
|-3-----------------------------^0--|-^5-----------------------------------|
|---12p5h8-12p5h7-10p4h7-10p4---^0--|-^4-----------------------------------|
|-------------------------------^0--|--------------------------------------|


  Q=40    Q=80
 4/4
|---------------------------------------------15----------|
|-^6------15----17----18----15----17----18----------17----|
|-^7---14----14----14----14----14----14----14----14----14-|
|-^0------------------------------------------------------|
|-^0------------------------------------------------------|
|-^0------------------------------------------------------|


|-------15----15----------15----17----18----15----17----------15-------------------------------------|
|-18----------------18----------------------------------18----------17----18----15----17----14-------|
|----14----14----14----14----14----14----14----14----14----14----14----14----14----14----14----14----|
|----------------------------------------------------------------------------------------------------|
|----------------------------------------------------------------------------------------------------|
|----------------------------------------------------------------------------------------------------|


 4/4
|-------------------------------------------------------------------------------------------------|
|-15----------------------------------------------------------------------------------------------|
|-------14----15----12----14----------12----------------------12----------------------------------|
|----12----12----12----12----12-15-12----12-14-12-15----12----------14----15----12----14----11----|
|----------------------------------------------------12----12----12----12----12----12----12----12-|
|-------------------------------------------------------------------------------------------------|


                                                    H.=H
 4/4
|-------------------------------------------------------------------|
|-------------------------------------------------------------------|
|-------------------------------------------------------------------|
|-12p0-7p0-8p0-5p0-7p0-3p0-5p0-2p0----------------------------------|
|----------------------------------8p0-5p0-10p0-7p0-8p0-5p0-7p0-4p0-|
|-------------------------------------------------------------------|


  Q=Q=80
 4/4
|-----------------------------------------------|
|-----------------------------------------------|
|-------3-------2-------0---------2---3---2---0-|
|-----3---3---2---2---0---0-----2-----3---2---0-|
|---5-------3-------1-------0h4-----5---3---1---|
|-0---------------------------------------------|


|-------------------------------------------------|
|-------------------------------------------------|
|-2-----3-------2-------0---------2---3---2---0---|
|-2---3---3---2---2---0---0-----2-----3---2---0---|
|-0-5-------3-------1-------0h4-----5---3---1-----|
|-------------------------------------------------|


|------------------------------------------------------|
|----------------------------------------------------2-|
|-2--(2)-0---------------------------2p0-----------2---|
|-2--------3-2-0---------------2h3h5-----3-2-3-0-3-----|
|-0--------------4-2-4-0-2h4h5-------------------------|
|------------------------------------------------------|


|---------------3h5-6---6---5---3-5-----6-----|
|-3-------3h5h6---------6---5---3-5---6---6---|
|---2h4h6-------------7---5---3---6-7---------|
|---------------------------------7-----------|
|---------------------------------------------|
|---------------------------------------------|


                               H.=H    Q=40
|-----5-------3----------5---6---5---3-5----|
|---5---5---3---3------5-----6---5---3-5-^3-|
|-5-------3----------6-----7---5---3---6-^4-|
|-----------------/7-------------------7-^3-|
|----------------------------------------^5-|
|-------------------------------------------|


    Q=90
|-------------6------------------------------------|
|-2---------8---10-8-6---6-------------------------|
|-2-----6-9------------9---9-7-6-7-----------------|
|-2-9p7----------------------------10-8-7--------0-|
|-----------------------------------------10-8-7---|
|--------------------------------------------------|


|-----------------------------|
|-5-----5-----------5---------|
|-3-------6-3-6-3-6---6-3-6-3-|
|-5---------------------------|
|-4---------------------------|
|-----------------------------|


|-------------------------------------------------|
|---5-----------5---------------------------------|
|-6---6-3-6-3-6---6-3-6-3---3-----------3---------|
|-------------------------5---5-2-5-2-5---5-2-5-2-|
|-------------------------------------------------|
|-------------------------------------------------|


|-------------------------------------------------|
|-------------------------------------------------|
|---3-----------3---------------------------------|
|-5---5-2-5-2-5---5-2-5-2---2-----------2---------|
|-------------------------4---4-1-4-1-4---4-1-4-1-|
|-------------------------------------------------|


|--------------------------------------------------|
|--------------------------------------------------|
|--------------------------------------------------|
|---2-----------2-----------2---2-5-2---2---2-5-2--|
|-4---4-1-4-1-4---4-1-4-1-4---4-------4---4--------|
|--------------------------------------------------|


|--------------------------------------------------|-------------------------5--5--|
|--------------------------------------------------|-------------------------5--5--|
|--------------------------------------------------|-6---6-9-6-9-6-9-6-9-6-9-6--6--|
|---2---2-5-2---2---2-5-2-/5-8-5-8-5-8-5-8-5-8-5-8-|---8---------------------7--7--|
|-4---4-------4---4--------------------------------|-------------------------------|
|--------------------------------------------------|-------------------------------|


  H.=H
|-3-------3-----------|------------------------------|
|-3-------5-----------|-----------------3------------|
|-3-------6-----------|---------------6-2------------|
|-5-------------------|---------------7-3-3-2--------|
|---------0-7-8-5-7-4-|-5-2-4-0-1---0-7---5-0-4------|
|-----7-5-------------|-----------6---5-3-0-----5----|


                Fugue
          Q=50   Q=100
 4/4
  Gtr I
          ~
|--------------|------5---5---5---5-|---5---5---5---5---5---5---5---5-|
|--------------|--------8---6---5---|-------------5---6---------------|
|--------------|--------------------|-7---6---7-------------------6---|
|-^0-----------|--------------------|---------------------7---9-------|
|-^0-----------|--------------------|---------------------------------|
|-^0--3-2-3----|--------------------|---------------------------------|


|---5---5---5---5-----10----10----10----10---|
|-------------5----------13----11----10------|
|-7---6---7-------/10------------------------|
|--------------------------------------------|
|--------------------------------------------|
|--------------------------------------------|


|----10----10----10----10----10----10----10----10-|
|-------------------10----11----------------------|
|-12----11----12----------------------------11----|
|-------------------------------12----14----------|
|-------------------------------------------------|
|-------------------------------------------------|


|----10----10----10----10-------10----------10----|-11-------11-------8----------8----------|
|-------------------10----11----------11----------|------8--------8--------10---------10----|
|-12----11----12-------------12----12----12----12-|----8---8----8---8---10----10---10----10-|
|-------------------------------------------------|-----------------------------------------|
|-------------------------------------------------|-----------------------------------------|
|-------------------------------------------------|-----------------------------------------|


|-10-------10-------6-------6-------|
|------6--------6-------8-------8---|
|----7---7----7---7---9---9---9---9-|
|-----------------------------------|
|-----------------------------------|
|-----------------------------------|


|-9-------9-------5-------5-------|-3-------3-----------------------|
|-----5-------5-------6-------6---|-----2-------2---6-------6-------|
|---6---6---6---6---7---7---7---7-|---3---3---3---3-----7-------7---|
|---------------------------------|-------------------7---7---7---7-|
|---------------------------------|---------------------------------|
|---------------------------------|---------------------------------|


|--------------------5---5---5---5-|
|-5-------5------------8---6---5---|
|-----3-------3--------------------|
|---5---5---5---5-/7---------------|
|-----------------/8---------------|
|----------------------------------|


|---5---5---5---5---5---5---5---5-|---5---5---5---5---5---5---5---5-|
|-------------5---6---------------|-------------5---6---5-----------|
|-7---6---7-------------------6---|-7---6---7---------------7---5---|
|---------------------7---9-------|---------------------------------|
|---------------------------------|---------------------------------|
|---------------------------------|---------------------------------|


|---5---5---3---3---3---3---3---3-|
|---------3-------5---3-----------|
|-----5-------3-----------5---3---|
|-8-------------------------------|
|---------------------------------|
|---------------------------------|


|---3---3---1---1---1---1---1---1-|---1---1---0---0---0---0---0---0-|
|---------1-------3---1-----------|-----------------2---------------|
|-----3-------2-----------3---2---|-0---2---3---0-------3---2---0---|
|-7-------------------------------|---------------------------------|
|---------------------------------|---------------------------------|
|---------------------------------|---------------------------------|


|---0---0---------------|-----------------------|
|-----------3-----------|-----------------------|
|-----0---2-------------|---6---6---7-----------|
|-3---------------------|-----8---7-------------|
|-------------5-4-4-5-5-|-7-----------5-4-4-5-5-|
|-------------3-8-8-7-7-|-5-----------3-8-8-7-7-|


|---10----10----10-------------------------|
|------14----12----14-12-14----------------|
|------------------------------------------|
|---------------------------7-5-7---5------|
|-7-----------------------0-------7---8-7--|
|-6----------------------------------------|


|---10----10-13-10------------------------|
|------14----------14-12-14---------------|
|-----------------------------------------|
|---------------------------7-5-7---5-3-2-|
|-8-----------------------0-------4-------|
|-----------------------------------------|


|---------------------------------|---------------------------------|
|---------------------------------|---------------------------------|
|---------------------------------|---------------------------------|
|-3-------------------------3-----|---------------------------------|
|---5-4-5-0---------5-4-5-----6-5-|-4-7---4---6-5-3-2-5---2-3-5-3-1-|
|-----------7-5-7-4-------5-------|-----7---0-----------5-----------|


|---------------------------------|
|---------------------------------|
|-------------------2-0---0-------|
|-----------------------4---------|
|-0-3---0---3-1-0-1---------1-0---|
|-----4---0---------------------5-|


|---------------------------------|---------------------------------|
|-3-------------------------------|---------------------------------|
|---------------------------------|---------------------------------|
|---0---0---0---0---0---0---0---0-|---0---0---0---0---0---0---0---0-|
|-----3---1---0---------------0---|-1---------------------------0---|
|-----------------5---4---5-------|-----0---2---4---5---4---5-------|


|---3---3---1---0---5---5-----0---|---6-5-6-3-6---3-0-8----8------------|
|-3---6---5---3-------8---6-8---6-|-------------6-------11---10-11-8-10-|
|-0---------------5---------------|-7-----------------------------------|
|-0-------------------------------|-------------------------------------|
|---------------------------------|-------------------------------------|
|---------------------------------|-------------------------------------|


|-----------------------------------|
|-6---------------------------------|
|---8-7-5-7-5-3-2-3-7---------------|
|---------8-7-5-3-5-8--8-7-5--8-5-3-|
|---------------------10-8-7-10-7-5-|
|-----------------------------------|


|-----------------------------------|
|-----------------------------------|
|------------7--------5---5---5---5-|
|-2-3-5-7--8---10-8-7---8---7---5---|
|-3-5-7-8-10--------8---------------|
|-----------------------------------|


|----------------------------------|-----------------8-6-5-----------|
|----------------------------------|-----------------------8-6-4-----|
|---5---5---5---5---5----5---5---5-|---5---5---5---5-------------7-5-|
|-------------5---7----------------|-------------5-------------------|
|-8---7---8----------------5---7---|-8---7---8-----------------------|
|---------------------10-----------|---------------------------------|


|-10-8-6------------12-10-8--------------|-13-12-10----------------15-13-12----------------|
|--------10-8-6-------------11-10-8------|----------13-11-10----------------15-13-11-------|
|---------------9-7-----------------10-9-|-------------------12-10-------------------14-12-|
|----------------------------------------|-------------------------------------------------|
|----------------------------------------|-------------------------------------------------|
|----------------------------------------|-------------------------------------------------|


|-17-13----13----13----13-17-13----13----13----13-|
|-------17----13----17----------17----13----17----|
|-------------------------------------------------|
|-------------------------------------------------|
|-------------------------------------------------|
|-------------------------------------------------|


|-15-12----12----12----12-15-12----12----12----12-|
|-------15----13----15----------15----13----15----|
|-------------------------------------------------|
|-------------------------------------------------|
|-------------------------------------------------|
|-------------------------------------------------|


|-17-13----13----13----13-17-13----13----13----13-|-15-12----12----12----12-15-12----12----12----12-|
|-------17----13----17----------17----13----17----|-------15----13----15----------15----13----15----|
|-------------------------------------------------|-------------------------------------------------|
|-------------------------------------------------|-------------------------------------------------|
|-------------------------------------------------|-------------------------------------------------|
|-------------------------------------------------|-------------------------------------------------|


|-13-15-13-12-------------------------13-17-13----|
|-------------15-13-12----12----12-15----------15-|
|----------------------14----12-------------------|
|-------------------------------------------------|
|-------------------------------------------------|
|-------------------------------------------------|

[ Tab from: http://www.guitartabs.cc/tabs/b/bach_johann_sebastian/tocatta_and_fugue_in_d_minor_complete_tab.html ]
|-----------------------------------12-15-12----|--------------------------------10-13-10----|
|--------------10-------11----11-13----------13-|-------------8------10----10-13----------13-|
|-----------10----10-------12-------------------|-----------9---9-------10-------------------|
|-9----9-12----------12-------------------------|-8----8-10-------10-------------------------|
|---10------------------------------------------|---10---------------------------------------|
|-----------------------------------------------|--------------------------------------------|


|-----------------------------9-12-9----|
|--------------------8---8-11--------11-|
|----------7-10-7------9----------------|
|-7---7-10--------10--------------------|
|---8-----------------------------------|
|---------------------------------------|


|-------------------5---5---5---5-|---5---5---5---5---5---5---5---5-|
|---------------------8---6---5---|-------------5---6---------------|
|---------6-9-6-------------------|-7---6---7-------------------6---|
|-5---5-8-------8-7---------------|---------------------7---9-------|
|---7-----------------------------|---------------------------------|
|---------------------------------|---------------------------------|


|---5---5-------------|---------------------------------|
|-----------5---------|---------------------------------|
|-7---6---7-5-7-5-3-2-|-3-2-0---------------------3-----|
|---------------7-5-4-|-5-----3-2-0-----------2-5---5-2-|
|---------------------|-------------4-2-4-0-4-----------|
|---------------------|---------------------------------|


|---------3-6-3-------------------|
|-2---2-5-------5-----------3-----|
|---2---------------------2---2---|
|-----------------0---0-3-------3-|
|-------------------0-------------|
|---------------------------------|


|---------5-10-5-------------------|---------3-6-3-------------------|
|-------6--------6-----------------|-2---2-5-------5-----------3-----|
|-7---7----------------------3-----|---2---------------------2---2---|
|---7--------------------2-5---5-2-|-----------------0---0-3-------3-|
|------------------4---4-----------|-------------------0-------------|
|--------------------5-------------|---------------------------------|


|----------5-10-5-----------------------|
|--------6--------6---------------------|
|-/7---7--------------------------------|
|----7------------------------8-11-8----|
|-------------------7----7-10--------10-|
|---------------------11----------------|


|-------------------------------------------|
|-----------11-14-11------------------------|
|-9----9-12----------12-----------7-10-7----|
|---11--------------------------------------|
|-----------------------8----8-12--------12-|
|-------------------------12----------------|


|-------------10-13-10------------------------|-------------------------------------------|
|----------10----------10---------------------|-----------11-14-11------------------------|
|-10----10------------------------------------|-9----9-12----------12-----------7-10-7----|
|----12-----------------------------8-11-8----|---11--------------------------------------|
|-------------------------7----7-10--------10-|-----------------------8----8-12--------12-|
|---------------------------11----------------|-------------------------12----------------|


|-------------10-13-10----------------------------|
|----------10----------10-------------------------|
|-10----10----------------------------------------|
|----12-------------------------------11-14-11----|
|-------------------------10----10-13----------13-|
|----------------------------14-------------------|


|----------9-12-9-------------9-10-13-10----|----10--------------------------------------|
|-8---8-11--------11-10----10------------10-|-11----11-------10--------------------------|
|---9-------------------10------------------|----------12-10----10-----------------7-6-4-|
|-------------------------------------------|----------------------12----12------0-------|
|-------------------------------------------|-------------------------12----12-8---------|
|-------------------------------------------|--------------------------------------------|


|---6-5-3---3-------6-5-3---3---0-|----------------9-10-13-12-10--------------------12-10-9-|
|---------6---6-5-3-------6---6---|--------8-10-12------------------------------------------|
|-6-------------------------------|-7-9-10-----------------------------------0--------------|
|---------------------------------|--------------------------------------2-3----------------|
|---------------------------------|------------------------------0-2-4-5----------------|
|---------------------------------|---------------------------------------------------------|


|-10-11-10-8------------------------------------|
|------------11-10-8----------------------------|
|--------------------11-8---------0---0---0---0-|
|-------------------------12-10-8---3---1---0---|
|-----------------------------------------------|
|-----------------------------------------------|


|---------------------------------|
|---------------------------------|
|---0---0---0---0---0---0---0---0-|
|-------------0---1---------------|
|-3---2---3---------------0---2---|
|---------------------5-----------|


|-------------------3---3---3---3-|---3---3---3---3---3---3---3---3-|
|-----------------4---6---4---3---|-------------3---4---------------|
|---0---0---0---0-----------------|-5---4---5-------------------4---|
|-------------0-------------------|---------------------5---7-------|
|-3---2---3-----------------------|---------------------------------|
|---------------------------------|---------------------------------|


|---3---3---3---3-----15----15-------------|-------------------------------------------------|
|-------------3---/16----18----16-18-15-16-|----18-16-18-15-16----15----16-15-16----15-------|
|-5---4---5--------------------------------|-17----------------17----15----------17----15-17-|
|------------------------------------------|-------------------------------------------------|
|------------------------------------------|-------------------------------------------------|
|------------------------------------------|-------------------------------------------------|


|-------------------------------------------------|
|----15-13-15----13-------------------------------|
|-14----------15----14-15-12-15-14-15-17-15-14-12-|
|-------------------------------16-17-19-17-16-14-|
|-------------------------------------------------|
|-------------------------------------------------|


|------------------------------------|------------------------------------|
|------------------------------------|------------------------------------|
|---7----7---7---7----7---7----7---7-|---7----7---7---7----7---7----7---7-|
|-----10---8---7-----------------7---|-8------------------------------7---|
|------------------10---9---10-------|----------7---9---10---9---10-------|
|-0----------------------------------|-----12-----------------------------|


|-10-8------------------------8-10-11-10-8-10-|
|------11-10-11-10-11-8-10-11-----------------|
|---------------------------------------------|
|---------------------------------------------|
|---------------------------------------------|
|---------------------------------------------|


|----8---------------11-13-15-16-15-13-15-|
|-11---10-11-8-12-13----------------------|
|-----------------------------------------|
|-----------------------------------------|
|-----------------------------------------|
|-----------------------------------------|


|-11-13-10-11------------------------------|---------------------------------------|
|--------------------------------8---------|---------------------------------------|
|-------------8-10-7-8----8-7-10---10-8-10-|-7---8-7------7--------------------7---|
|----------------------10------------------|---8-----11-7---10-9----10-8-7---8-----|
|------------------------------------------|---------------------10--------8-------|
|------------------------------------------|---------------------------------------|


|---------------------------------------|
|---------------------------------------|
|----7----------------------------------|
|-10---10-8-7-10-8-7----10-8-7-8-10-8-7-|
|--------------------10-----------------|
|---------------------------------------|


|-----------^9----------^10----------^9--------|-^6--------5-9-10-12-13----10-----|
|--------------11-10----^10----------^7--------|-^8-6----------------10----10-----|
|-----------^9-------12-^11----------^7--------|------10-7-6-9-10-12----12----10--|
|----7----------------------13-12-10-^0-10-8-7-|-^5-------------------------------|
|-10---8-10------------------------------------|----------------------------------|
|----------------------------------------------|----------------------------------|


|----------------------------------------------|
|----10----10-11-10----10----------------------|
|-12----12----------12----10-12-9-10-----------|
|------------------------------------12-10-8-7-|
|----------------------------------------------|
|----------------------------------------------|


|----------------------------------|---------------------------------|
|----------------------------------|---------------------------------|
|----------------------------------|-------------------------------7-|
|-8-7------------0-----0---2---3---|-5---3---2---0-----7---7---7-----|
|-----10-8-7-8-7---4-0---0---0---0-|---0---0---0---0-4---0---5---5---|
|----------------------------------|---------------------------------|


|-------------------5---5---5---5-|---5---5---5---5---5---5---5---5-|
|-----------------5---8---6---5---|-------------5---6---------------|
|---7---6---7---7-----------------|-7---6---7-------------------6---|
|-5-----------0-------------------|---------------------7---9-------|
|-----7---8-----------------------|---------------------------------|
|---------------------------------|---------------------------------|


|---5---5---5---5-/17-18-15-17----15-------|
|-------------5----------------18----17-18-|
|-7---6---7--------------------------------|
|------------------------------------------|
|------------------------------------------|
|------------------------------------------|


|-------------------------------------------15----|
|-15----14----15----17----15----17----15----------|
|----14----14----14----14----14----14----14----14-|
|-------------------------------------------------|
|-------------------------------------------------|
|-------------------------------------------------|


|-17----------------15----17-5---5---5---5-|---5---5---5---5---5---5---5---5-|
|-------17----18----------------8---6---5---|-------------5---6---------------|
|----14----14----14----14-------------------|-7---6---7-------------------6---|
|-------------------------------------------|---------------------7---9-------|
|-------------------------------------------|---------------------------------|
|-------------------------------------------|---------------------------------|


|---5---5---5---5---/12-10-9-10-13-|--------15-17-18-17-15-17-13-------------12-13----|
|-------------5---6----------------|-/17-18-------------------------12-14-15-------16-|
|-7---6---7------------------------|-----------------------------14-------------------|
|----------------------------------|--------------------------------------------------|
|----------------------------------|--------------------------------------------------|
|----------------------------------|--------------------------------------------------|


|--------------------------------------------------|
|-15-13----------------13--------------------------|
|-------15-14-12-14-15----14-----------------------|
|----------------------------10---------10-13-10---|
|-------------------------------12-8-12------------|
|--------------------------------------------------|


|----------------------------------------------|
|----------------------------------------------|
|----------------------12----------------0-----|
|-12----------------12----10-12----10----------|
|----13-10----10-13-------------13----12---9-7-|
|----------12----------------------------------|


|------------------------------10------|--------------------------6-10-8-6-|
|-------------------7---7-8-10----10-8-|-----------------8---8-10----------|
|------------7--------7----------------|-----------7-------7---------------|
|---0------7---7-----------------------|-5---5-7-8---8-7-------------------|
|-9---9-10-------10--------------------|---5-------------------------------|
|--------------------------------------|-----------------------------------|


|-------------------------------8-11-8----|--------------------------------15-18-15----|
|-------------------10----10-11--------11-|----------8-11-8----11-------15----------15-|
|------------8---------11-----------------|-----7-11--------------12-15----------------|
|-7---7-8-10---10-8-----------------------|-7-8-------------12-------------------------|
|---9-------------------------------------|--------------------------------------------|
|-----------------------------------------|--------------------------------------------|


|------------------------------------13-17-13----|
|---------------10------/13----13-16----------16-|
|----------8-11----11-8-----14-------------------|
|-10----10---------------------------------------|
|----12------------------------------------------|
|------------------------------------------------|


|---------------|-------------------|
|---------------|--------8-10-------|
|----7-5-3--5-7-|--8--10-9-10--10-8-|
|----5-4-5--5-9-|-10--10--------8-7-|
|---------------|-------------------|
|-0-------------|-------------------|


|---------------------------------------|-------------------------------|
|---------------------------------------|------------------------3-5-6--|
|-7-8-7---------------------------------|--------------------4-6--------|
|-8-----10-8-10-8-7----10-8-7----7------|--------0-------4-7------------|
|-------------------10--------10---10-9-|-10-8-7---4-7-8----------------|
|---------------------------------------|----------2-5------------------|


|-3-------------------------3---|
|---6-5-3---2---3---5---6-------|
|-3-------2---2---2---2---2---2-|
|-------------------------------|
|-------------------------------|
|-------------------------------|


  H.=H
|-5-------------------------------|-^0----------------------|
|-----2---3---5---6---5---6---3---|-^2-^3-^3-^2-^3-^6-^5-^1-|
|---2---2---2---2---2---2---2---2-|-^2-^2-^3-^2-^2-^7-^7-^2-|
|---------------------------------|-^2-^0-^5-^2-^3-^0-^8-^2-|
|---------------------------------|-^0-------^0----^0----^0-|
|---------------------------------|----^3-^5----^3-^0-^5----|


  Q=40   Q=80
|--------17-18-20-22----------------------------------|
|-^3-----------------------------------16-18----------|
|-^3-----------------------17-19-17-19-------------14-|
|-^3-----------------19-20-------------------15-17----|
|-^1--------------------------------------------------|
|-----------------------------------------------------|


|-----------------------------------------------------------------------------------------------|
|----------13-15--------------------------------------------------------------------------------|
|-15-14-15-------14-------------14-15-17-12-------------12-14-15-------------------8-10---------|
|-------------------17-15-13-17-------------15-13-12-15----------------10-12-10-12-----------7--|
|----------------------------------------------------------------12-13------------------8-10----|
|-----------------------------------------------------------------------------------------------|


|--------------------------------------------------------------------8-10---|
|--------------------------------------------------------------10-11--------|
|-------5-7-5---------5-7-8-7-----------7-9-11-8---------10-12------------0-|
|-8-7-8-------8-7-5-8---------10-8-7-10----------12-10-8--------------------|
|---------------------------------------------------------------------------|
|---------------------------------------------------------------------------|


|-------------------|
|-^5----(5)--^3-(3)-|
|-^3----(3)--^2-(2)-|
|-^5----(5)--^3-(3)-|
|-^4----(4)--^0-(0)-|
|--------3-------0--|


|-----------7------------|--------------------|
|-^3-----/9---6-9--------|---------0----------|
|-^4--------------7-10---|-7-------7-^5-------|
|-^3-------------------9-|---6-7---6-^7---5---|
|-^5---------------------|-------7-7-^7-----8-|
|------------------------|--------------------|


|---------------------------------------|
|---------------------------------------|
|-^5------------------------------------|
|-^5-----5---5------------7-5-7---------|
|-^7-------8---7-7-5-7----------8-8-7-8-|
|----------------------10---------------|


|-----------------------------------------------------------8-7-8--|
|-----------------------------------5---5---6-5-6---8-6-8-5--------|
|-------------------5---5---7-5-7-----7---5-------7----------------|
|---9-7-9-5-5---5-----9---7-------9--------------------------------|
|-5-----------8---7------------------------------------------------|
|------------------------------------------------------------------|


|-5-10-8-10-7---------8-7-8-5---------7-5-7---5---5------------------|
|-------------9-7-9-5---------6-5-6-------------8-----9-7-9-5--------|
|-----------------------------------7-------5-----------------5------|
|---------------------------------------------------9-----------9-7--|
|--------------------------------------------------------------------|
|--------------------------------------------------------------------|


  H.=H                                            Q=60
|-----------------------------------5---------5-7-8----|
|-----------5-------6-5-----8-6-5-----8-6-5-8--------8-|
|---7-5-------7-5-------7-5-------7------------------9-|
|-6-----9-7-------9---------------------------------10-|
|------------------------------------------------------|
|------------------------------------------------------|


  Q=80
|-^-9------------9--9-^10-------------10-10-|
|-^10---------10---10-^10----------10----10-|
|-^-9-------9-------9-^10-------10-------10-|
|-^11----11--------11--------12-------------|
|-^12-12-----------12-^-8-12--------------8-|
|-------------------------------------------|


|-^7----------7-7-^8-----------8-8-|-^5---------5-5-^6---------6-6-|
|-^8--------8---8-^8---------8---8-|-^6-------6---6-^6-------6---6-|
|-^7------7-----7-^9-------9-----9-|-^5-----5-----5-^7-----7-----7-|
|-------9---------------10---------|------7--------------8---------|
|-^8-10---------8-^7-10----------7-|-^7-8---------7-^5-8---------5-|
|----------------------------------|-------------------------------|


  H.=H
|--------------6--0-----------------------|
|-^11------------11-^10-------------10-10-|
|-^12--------6---12-^11----------11----11-|
|-^14------8-----11-^12-------12-------12-|
|-----7h10-----------------12-------------|
|-^11---------------^10-12-------------10-|


                                         Q=40
|-^5--^3--^0--^1--|-^-0----------------|-----------|--------*|
|-^3------^2--^3--|-^(3)-----^-3-------|-^3--------|-(3)----*|
|-^3------^3--^2--|-^-2---5--^(5)--^3--|-^2--------|-(2)----*|
|-----------------|----------^-3---^5--|-^3--------|-(3)----*|
|-----^1----------|-^-0------^-1-------|-^0--------|-(0)----*|
|-^5------^2--^3--|----------------^5--|-^0--------|-(0)----*|



Thanks
Peace Out
~Anarchy
Comments