Bach Johann Sebastian - Joy Of Man Standard Tuning Chords & Tabs

 

Joy Of Man Standard Tuning Chords & Tabs

Bach Johann Sebastian Chords & Tabs

Version: 1 Type: Tab 1 rating
1 star 2 stars 3 stars 4 stars 5 stars
comments

Joy Of Man Standard Tuning Tab

.    .    .      *** JESU, JOY OF MAN'S DESIRING ***
.    .    .    .    .    .   J.S. BACH

Andante (3/4 time)        tabbed by sean coleman

e|---------------------------0-----|-----3--2----3-------------------|
B|-------------0--3--1----1-----3--|--3----------0--3--0----------0--|
G|-----0--2----0----------0--------|--0---------------------0--2-----|
D|-------------0----------2--------|-------------2----------2--------|
A|---------------------------------|--2------------------------------|
E|--3------------------------------|---------------------------------|



e|--------0------------------------|---------------------------------|
B|--1--3-------3--1--0-------0-----|------------------------1--0-----|
G|-------------0----------2-----0--|-----0--2----------2----------2--|
D|---------------------------------|--4----------0--4-------0--------|
A|--0----------2----------3--------|---------------------------------|
E|---------------------------------|---------------------------------|



e|---------------------------0-----|-----3--2----3-------------------|
B|--0----------0--3--1----1-----3--|--3----------0--3--0----------0--|
G|-----0--2----0----------0--------|--0---------------------0--2-----|
D|------------------------2--------|-------------2----------0--------|
A|---------------------------------|--2------------------------------|
E|--3----------0-------------------|---------------------------------|

.    .    .    .    .    .    .   Barre III
.    .    .    .    .    .    .    .  |
e|---------------------------------|--|----------3-------------------|
B|-----3--1----0-------------------|--------3-------3----------------|
G|-------------0--2--0-------0-----|-----4-------------4-------4--2--|
D|--2---------------------------4--|--5---------------------5--------|
A|--3----------4----------5--------|-------------5----------2--------|
E|---------------------------------|--3------------------------------|

 Back to 1st
    |
e|--|------------------|---------------------|---------------------|
B|--0---------------1--|--3---------------3--|--1---------------0--|
G|--0------------------|------------------0--|------------------0--|
D|----------4-------2--|--4-------2----------|--2-------4----------|
A|---------------------|---------------------|---------------------|
E|---------------------|---------------------|---------------------|



e|---------------------------------|---------------------------------|
B|---------------------------1--0--|--1---------------------1--0-----|
G|--2-------------2--0----2--------|-----2-------------2----------2--|
D|--4--0--2----4-------------------|--0-----4----0--4-------0--------|
A|---------------------------------|---------------------------------|
E|---------------------------------|---------------------------------|



e|---------------------------0-----|-----3--2----3-------------------|
B|--0----------0--3--1----1-----3--|--3----------0--3--0----------0--|
G|-----0--2----0----------0--------|--0---------------------0--2-----|
D|-------------4----------2--------|-------------2----------2--------|
A|---------------------------------|--2------------------------------|
E|--3------------------------------|---------------------------------|



e|---------------------------------|---------------------------------|
B|-----3--1----0-------------------|-----3--1----0-------------------|
G|----------------2--0-------0-----|----------------2--0-------0-----|
D|--2----------0-------------------|--2----------0----------0-----4--|
A|--3---------------------5-----4--|--3------------------------------|
E|---------------------------------|---------------------------------|



e|---------------------------0-----|-----3--2----3-------------------|
B|-----0-------0--3--1----1-----3--|--3----------0--3--0----------0--|
G|--0-----2----0----------0--------|--0---------------------0--2-----|
D|-------------0----------2--------|-------------2-------------------|
A|---------------------------------|--2------------------------------|
E|--3------------------------------|------------------------0--------|



e|--------0------------------------|---------------------------------|
B|--1--3-------3--1--0-------0-----|------------------------1--0-----|
G|------------------------2-----0--|-----0--2----------2----------2--|
D|---------------------------------|--4----------0--4-------0--------|
A|--0----------2----------3--------|---------------------------------|
E|---------------------------------|---------------------------------|



e|---------------------------0-----|-----3--2----3-------------------|
B|--0----------0--3--1----1-----3--|--3----------0--3--0----------0--|
G|-----0--2----0----------0--------|--0---------------------0--2-----|
D|------------------------2--------|-------------2----------0--------|
A|---------------------------------|--2------------------------------|
E|--3----------0-------------------|---------------------------------|


[ Tab from: http://www.guitartabs.cc/tabs/b/bach_johann_sebastian/joy_of_man_standard_tuning_tab.html ]
e|---------------------------------|-------------3-------------------|
B|-----3--1----0-------------------|-----0--3-------3--0-------0--2--|
G|-------------0--2--0-------0-----|--0---------------------0-----0--|
D|--2---------------------0-----4--|---------------------------------|
A|--3----------4-------------------|------------------------------0--|
E|---------------------------------|--3------------------------------|
.    .    .    .    .    .    .    .    .    run down
.    .    .    .    .    .    .    .    .    . chord
.    .    .    .    .    .    .    .    .    .   |
e|---------------------------------|-------------|-------------------|
B|--3------------------------0-----|-----1--0----1-------------------|
G|----------------2--1----1-----2--|--2----------2--2----------------|
D|--4--0--2----4-------------0-----|-----2--0----2-----2-------0--2--|
A|--0----------3----------2-----3--|--3----------0----------3--------|
E|---------------------------------|---------------------------------|
.    .    . run down
.    .    .  chord
.    .    .    |
e|-------------|-------------------|----------------0----------1--0--|
B|-----3--1----3--0----------------|-----1--0----1-----3----3--------|
G|-------------1-----1----------1--|--2----------2----------2--------|
D|--3---------------------2--4-----|-------------3----------3--------|
A|-------------2-------------------|--0------------------------------|
E|---------------------------------|---------------------------------|



e|--0--5--4----5--0----------------|--1--0---------------------------|
B|-------------5-----1-------0--1--|--3-----3----1--0----------------|
G|--2---------------------2--------|--2----------2-----2-------2--1--|
D|-------------3----------2--------|--0----------1----------2--------|
A|--3------------------------------|---------------------------------|
E|---------------------------------|---------------------------------|

.    .    .    .    .    .    .    .    .    .   Barre V
.    .    .    .    .    .    .    .    .    .    . |
e|--------0------5------3--|-------------0--3-------|--6--5--|
B|-----1---------5------3--|-----1--3----1-----6----8--------|
G|--2------------6---------|--0----------2----------5--------|
D|-------------------------|--2---------------------5--------|
A|--0-------------------2--|--3---------------------5--------|
E|-------------------------|---------------------------------|

.    .    .    .     Back to 1st
.    .    .    .    .     |
e|--5--8--7----8--5-------|--0--1--|--0--3--1----3--0----------------|
B|--6----------------6----3--------|--1----------------3-------------|
G|--5---------------------0--------|--0---------------------0--2--4--|
D|---------------------------------|-------------2-------------------|
A|-------------5-------------------|--3---------------------3--------|
E|---------------------------------|---------------------------------|



e|---------------------------------|---------------------------------|
B|-----1--0----1-------------------|---------------------------0-----|
G|--2-------------2----------------|----------------0-------0-----2--|
D|--3----------0-----1----0--2--1--|--2-----0----2-----4-------------|
A|---------------------------------|-----3-------------0-------------|
E|------------------------3--------|------------------------3--------|



e|---------------------------0-----|-----3--2----3-------------------|
B|--0----------0--3--1----1-----3--|--3----------0--3--0----------0--|
G|-----0--2----0----------0--------|--0---------------------0--3-----|
D|-------------0----------2--------|-------------2-------------------|
A|---------------------------------|--2------------------------------|
E|--3------------------------------|------------------------0--------|



e|--------0------------------------|---------------------------------|
B|--1--3-------3--1--0-------0-----|---------------------------1--0--|
G|-------------0----------2-----0--|----------------2--0----2--------|
D|---------------------------------|--4--0--2----4----------0--------|
A|--0----------2----------3--------|---------------------------------|
E|---------------------------------|---------------------------------|



e|---------------------------------|---------------------------0-----|
B|--1---------------------1--0-----|--0----------0--3--1----1-----3--|
G|-----2-------------2----------2--|-----0--2----0----------0--------|
D|--0-----4----0--4-------0--------|-------------4----------2--------|
A|---------------------------------|---------------------------------|
E|---------------------------------|--3------------------------------|



e|-----3--2----3-------------------|---------------------------------|
B|--3----------0--3--0----------0--|-----3--1----0-------------------|
G|--0---------------------0--2-----|-------------0--2--0-------0-----|
D|-------------2----------2--------|--2----------0----------0-----4--|
A|--2------------------------------|--3------------------------------|
E|---------------------------------|---------------------------------|



e|-------------3-------------------|--1---------------------0--------|
B|-----0--3-------3--0-------0--3--|-----3--0-------0--3-------1-----|
G|--0---------------------0--------|-------------0----------------2--|
D|---------------------------------|---------------------------------|
A|---------------------------------|---------------------------------|
E|--3---------------------3--------|--3---------------------3--------|



e|---------------------------------|---------------------------------|
B|--------1----3--0-------------0--|--1---------------------1--0-----|
G|-----2-------------0-------0-----|-----2-------------2----------2--|
D|--4---------------------2--------|--------4----0--4----------------|
A|---------------------------------|---------------------------------|
E|--3----------3----------3--------|--3---------------------3--------|



e|---------------------------0-----|-----3--2----3-------------------|
B|--0----------0--3--1----1-----3--|--3----------0--3--0----------0--|
G|-----0--2----0----------0--------|--0---------------------0--2-----|
D|-------------0----------2--------|-------------2----------2--------|
A|---------------------------------|--2------------------------------|
E|--3------------------------------|---------------------------------|



e|--------0------------------------|---------------------------------|
B|--1--3-------3--1--0-------0-----|------------------------1--0-----|
G|-------------0----------2-----0--|-----0--2----------2----------2--|
D|---------------------------------|--4----------0--4----------------|
A|--0----------2----------3--------|---------------------------------|
E|---------------------------------|---------------------------------|



e|---------------------------0-----|-----3--2----3-------------------|
B|--0----------0--3--1----1-----3--|--3----------0--3--0----------0--|
G|-----0--2----0----------0--------|--2---------------------0--2-----|
D|------------------------2--------|-------------2----------0--------|
A|---------------------------------|--2------------------------------|
E|--3----------0-------------------|---------------------------------|
.    .    .    .    .    .    .    run down
.    .    .    .    .    .    .     chord
.    .    .    .    .    .    .    .  |
e|---------------------------------|--|-----------------------------||
B|-----3--1----0-------------------|--------------------------------||
G|-------------0--2--0-------0-----|--0-----------------------------||
D|--2---------------------0-----4--|--0-----------------------------||
A|--3----------4----------------3--|--2-----------------------------||
E|---------------------------------|--3-----------------------------||
Comments