Babyshambles - Pipe Down Chords & Tabs

 

Pipe Down Chords & Tabs

Babyshambles Chords & Tabs

Version: 1 Type: Tab

Pipe Down Tab

   
RIFF (Intro)

e--0000777700000000
B-s5555555522223333
G------------------|   [x4]
D------------------|
A------------------|
E------------------|

CHORUS
                 E         C   A
oh paddy put the pipe down
                    E            C   A
if you got the right sound
               E          C   A
if isn't not alright son
      E       C    A
oh la-lie, oh my

VERSE
[ Tab from: http://www.guitartabs.cc/tabs/b/babyshambles/pipe_down_tab.html ]
e-7-7s8s7-7s8s7-7s8s7-7s8s7----------------------|
B-5-5s6s5-5s6s5-5s6s5-5s6s5-5////-5////-33333333-|
G---------------------------4h5p4-4h5p4-22223333-|
D------------------------------------------------|
A------------------------------------------------|
E------------------------------------------------|

E-7-7s8s7-7s8s7-7s8s7-7s8s7-5-6-|
B-5-5s6s5-5s6s5-5s6s5-5s6s5-5-6-|
G---------------------------6-7-|
D---------------------------7-8-|
A---------------------------7-8-|
E---------------------------5-6-|   <- can't be arsed typing the rhythm, easy!

CHORUS...

VERSE

e-7-7s8s7-7s8s7-7s8s7-7s8s7-5-5-3-5--5-5-3-5--5-5-3-5-66666666-|
B-5-5s6s5-5s6s5-5s6s5-5s6s5-5-5-3-5--5-5-3-5--7-7-5-7-88888888-|
G---------------------------6-6-4-6--6-6-4-6--7-7-5-7-88888888-|
D---------------------------7-7-5-7--7-7-5-7--7-7-5-7-88888888-|
A---------------------------7-7-5-7--7-7-5-7--5-5-3-5-66666666-|
E---------------------------5-5-3-5--5-5-3-5--5-5-3-5-66666666-|

CHORUS
RIFF
la la-la la-la lalalala-la
CHORUS x2

E-7h8p7
B------|
G------|
D------|      {END}
A------|
E------|