Babyshambles - In Love With A Feeling Chords & Tabs

 

In Love With A Feeling Chords & Tabs

Babyshambles Chords & Tabs

Version: 1 Type: Tab

In Love With A Feeling Tab

   
INTRO
e|-0------------------------------3-----------0-------------|
B|-1--1-----------------------1---------------1-------------|
G|-0----0---0-1-----1/3-3-1-0---0---1-1/3-3-1-0-------------|
D|-2------2-----2-----------------------------2-------------|
A|-3--------------2---------------------------3-------------|
E|----------------------------------------------------------|

VERSE chords go like this:

C                                          F
they would if they could but the cant.... talk like they could
F                  G
are you going to hear what the say, wot im tring to say is........
[ Tab from: http://www.guitartabs.cc/tabs/b/babyshambles/in_love_with_a_feeling_tab.html ]
CHORUS
C                       E                        F
  I'm in love with a feeeeeling i know that it shows,
F                       E                          G
  I'm in love with a feeeeeling i don't ?care for moles?

on the "odd man by the stairs" bit just pluck these notes randomly
e|------------15--17----------|
B|--15-15-15------------------|
G|----------------------------|
D|----------------------------|
A|----------------------------|
E|----------------------------|

BRIDGE

C
I'm still waiting
E
show me fire
F
like an open 
E            C          E         F           E
Door  laala.lalalalalalaalalalalalalalalaaaaaaaaaaaaaaaaaaaaaaaaaa

ok, thats it, if its not that good dont be hard on me because i'm the 
first one to tab this anyware...BUT DO RATE AND COMMENT!!!

composed by............... smelly socks