Babyshambles - Fuck Forever Chords & Tabs

 

Fuck Forever Chords & Tabs

Babyshambles Chords & Tabs

Version: 2 Type: Tab 0 ratings
1 star 2 stars 3 stars 4 stars 5 stars
comments

Fuck Forever Tab

-------------------------------------------------------------------------------
			     Babyshambles - Fuck Forever
-------------------------------------------------------------------------------
Tabbed by: Peasey
See my band! I'm the dude with all the white guitars lol
http://spaces.msn.com/members/undertheinfluenceband/
when i say ska chord it i mean play once then deadnote same and repeat.
Tuning: Standard
intro 
E|2--2--2--8--8--8--/---------------------------------------------------------|
B|-3--3--3/-8--8--8-/---------------1212-1616-1515----------------------------|
G|--2--2-----7--7---/---------------1212-1616-1515----------------------------|
D|-----------------------------1212-1010-1414-1313-12----12----12---12--------|
A|-----------------------------1212------------------12----12----12-12-(hold)-| 
E|-----------------------------1010--------------------10----10-----10--------|

verse
E|---------------------------------| its a bit hard to say exactly HOW,
B|----12-16------------------------| since the guitarist kinda makes it
G|----x--x-------------------------| up loosely, but just almost 'ska -
D|12--10-14---66-------------------| chord' around these. sorry! not 
A|x-----------66-(don't ska, rep---| my bad, blame him! vague is trendy
E|10----------44--to bridge)-------| for some reason on guitar...
[ Tab from: http://www.guitartabs.cc/tabs/b/babyshambles/fuck_forever_tab_ver_2.html ]
bridge
E|---------------------------------------------------------------------|
B|16-------------------------------------------------------------------|
G|x--------------------------------------------------------------------|
D|14----------------------------xxxxx----------------------------------|
A|--repeatedly 'ska chorded'----xxxxx----------------------------------|
E|------------------------------xxxxx----------------------------------|

chorus
E|--------------------------------------------------------------------|
B|-----------------16161616\12121212----------------------------------|
G|-----------------16161616\12121212----------------------------------|
D|12121212/1616161614141414\12101010-rep then slide downup quickly----|
A|12121212/16161616---------------------------------------------------|
E|10101010/14141414---------------------------------------------------|

solo
E|-----------------------------------------------------------|
B|4sb*-432234/7-7~107h8p7811*--repeat and end with 4327810~/\|
G|-----------------------------------------------------------|
D|-----------------------------------------------------------|
A|-----------------------------------------------------------|
E|-----------------------------------------------------------|

sb = slow bend
* = hold note
x = deadnote
~ = vibrato
/ = slide up
\ = slide down
h = hammer on
p = pull off (sniggers)
hope you like the tab, i tried to get it accurate as poss considering the style of this
guy is to play what he feels like pretty much!
===================================================================
Comments