Babyshambles - Conversation Diva Chords & Tabs

 

Conversation Diva Chords & Tabs

Babyshambles Chords & Tabs

Version: 1 Type: Tab 0 ratings
1 star 2 stars 3 stars 4 stars 5 stars
comments

Conversation Diva Tab

e--------------------------------------------------------------------|
B--------------------------------------------------------------------|
G--------------------------------------------------------------------|
D---5-5-4-5-6-5-4-5-----------------9-9-8-9-109-8-9------------------|
A---5-5-4-5-6-5-4-5-----------------9-9-8-9-109-8-9------------------|
E---3-3-2-3-4-3-2-3-----------------7-7-6-7-8-7-6-7------------------|

In some sort of order
[ Tab from: http://www.guitartabs.cc/tabs/b/babyshambles/conversation_diva_tab.html ]
e--------------------------------------------------------------------|
B--------------------------------------------------------------------|
G--------------------------------------------------------------------|
D------5-x--x------------------------------9--x--x-------------------|
A------5-x--x---and so on------------------9--x--x----and so on------|
E------3-x--x------------------------------7--x--x-------------------|
      I'll tell you a story...             It's the story of a...

e--------------------------------------------------------------------|
B--------------------------------------------------------------------|
G--------------------------------------------------------------------|
D--5--55---------------------------/--9--99--------------------------|
A--5--55----and so on--------------/--9--99-----and so on------------|
E--3--33---------------------------/--7--77--------------------------|
   And the conversation turned....   ...evil...       AND BACK


Then the first part again, the third part, the second part and then the third part.  and then:

e----------------------------------|
B----------------------------------|
G----------------------------------|
D---5-5-4-5-6-5-4-5----------------|
A---5-5-4-5-6-5-4-5----------------|
E---3-3-2-3-4-3-2-3----------------|
                                    kah!!
Comments