Babyface - The Loneliness Chords & Tabs

 

The Loneliness Chords & Tabs

Babyface Chords & Tabs

Version: 1 Type: Tab 0 ratings
1 star 2 stars 3 stars 4 stars 5 stars
comments

The Loneliness Tab

Title:The Loneliness
Artist:Babyface
Tabbed by:Rod Thompson
Email:rodcthomp1@aol.com

Babyface is The Man when it comes to dropping a smoothie
anywho without further ado here is my version of He So Lonely
[ Tab from: http://www.guitartabs.cc/tabs/b/babyface/the_loneliness_tab.html ]
standard tuning
E:-------------------------------------------------------------------
B:-------------4----------------3------------3-----------------------
G:-----3------3-3------2-------3-3-----0-h-3--3--0--------5----------
D:----5-5----5---5----3-3-----3---3---1-----------------6--6---------
A:---5---5--3--------3---3---1------------------------6------6-------
E:-3---------------1-------------------------------s4----------------


E:-------------------------------------------------
B:------5-h-7------------5-h-7---------------------
G:-----5-----5---------5------5--------------------
D:---7---------7-----7----------7------------------
A:-5---------------5-------------------------------
E:-------------------------------------------------

well thats it. you know the drill any comments or death threats
rodcthomp1@aol.com
Comments