Baby Bash - Suga Suga Chords & Tabs

 

Suga Suga Chords & Tabs

Baby Bash Chords & Tabs

Version: 4 Type: Tab 0 ratings
1 star 2 stars 3 stars 4 stars 5 stars
comments

Suga Suga Tab

The original way to play this song is with a capo, I dont have one but here its
a way to play it , its more complicated but its 99.9% correct
[ Tab from: http://www.guitartabs.cc/tabs/b/baby_bash/suga_suga_tab_ver_4.html ]
|---------------------------------|-----------------------------------|
|---------------------------------|-----------------------------------|
|---7---7h9p7---------------------|-----------------------------------|
|-----9--------7---7---7h9p7---7--|----4-------6--------9-9h11h9--7---|
|----------------9---9-----------9|--5---5---7---7-------------------9|
|7--------------------------------|------------------7----------------|


|---------------------------------|-----------------------------------|
|---------------------------------|-----------------------------------|
|---7---7h9p7---------------------|-----------------------------------|
|-----9--------7---7---7h9p7---7--|----4-------6--------9-9h11h9--7---|
|----------------9---9-----------9|--5---5---7---7-------------------9|
|7--------------------------------|------------------7----------------|


Repeat as many times as needed
Comments