Babes In Toyland - Wont Tell Chords & Tabs

 

Wont Tell Chords & Tabs

Babes In Toyland Chords & Tabs

Version: 1 Type: Tab

Wont Tell Tab

Song:"Won't Tell"
Artist:Babes In Toyland
Album: Fontenelle

Verse:

e|---------------------------|
B|--4--4--4--4--0--0--0------|
G|--4--4--4--4--0--0--0------|
D|---------------------------|
A|---------------------------|
E|---------------------------| x8
pm____

e|-----
B|--4-^   (bend strings up than down)
G|--4--
D|-----
A|-----
E|-----

Chorus:
e|--------------------|
B|--------------------|
G|--3--3--3--1--1--1--|
D|--4--4--4--2--2--2--|
A|--4--4--4--2--2--2--|
E|--2--2--2-----------| x8(the first four times play slightly faster during the "I wait 
for you!!")

(verse)
(chorus)
[ Tab from: http://www.guitartabs.cc/tabs/b/babes_in_toyland/wont_tell_tab.html ]
Bridge:
(when she screams)
e|--------------------|
B|--------------------|
G|--4--4--4--1--1--1--|
D|--5--5--5--2--2--2--|
A|--5--5--5--2--2--2--|
E|--3--3--3-----------| x2

e|--------------------|
B|--------------------|
G|--3--3--3--1--1--1--|
D|--4--4--4--2--2--2--|
A|--4--4--4--2--2--2--|
E|--2--2--2-----------| x2

(verse)
(chorus)
 (bridge)

("You... come... running... through.....")
e|--------------------|
B|--------------------|
G|--8--8--8--1--1--1--|
D|--9--9--9--2--2--2--|
A|--9--9--9--2--2--2--|
E|--7--7--7-----------| x4


Chorus "Figure out! your problem! with me is you!" (except play only x4)

Verse (only x4 this time)