Babes In Toyland - Watching Girl Chords & Tabs

 

Watching Girl Chords & Tabs

Babes In Toyland Chords & Tabs

Version: 1 Type: Tab 0 ratings
1 star 2 stars 3 stars 4 stars 5 stars
comments

Watching Girl Tab

   
			  Watching Girl
			Babes in toyland
		From:The Further Adventures of Babes in Toyland album
		Babes in toyland are one of the best punk band in the world.


   Intro:
  Bass
  G------------------
  D--4-5-7-----------
  A-5----------------
  E-------5-5-5-5-5-5

  Guitar
  G------------------------
  D-7-7-7-7-7-7------------
  A-5-5-5-5-5-5-7-7-7-7-7-7
  E-------------5-5-5-5-5-5


  Chorus:
  Bass
  D-------------------------------------------------    
  A-33-55-66-55---33-55-66-55---33-55-66-5----------	        	
  E----------------------------------------3-3-3-3-3-3		
[ Tab from: http://www.guitartabs.cc/tabs/b/babes_in_toyland/watching_girl_tab.html ]
  D---------------------------------------------------    
  A-33-55-66-55---33-55-66-55---33-55-66-5------------	        	
  E----------------------------------------5-5-5-5-5-5


  Guitar
  G------------------------------------------------   
  D-55-77-88-77---55-77-88-77---55-77-88-7------------     
  A-33-55-66-55---33-55-66-55---33-55-66-5--5-5-5-5-5-5-5
  E-----------------------------------------3-3-3-3-3-3-5		


  G-----------------------------------------------------   
  D-55-77-88-77---55-77-88-77---55-77-88-7--------------     
  A-33-55-66-55---33-55-66-55---33-55-66-5--7-7-7-7-7-7-7
  E-----------------------------------------5-5-5-5-5-5-5


  Solo:
  Unsure, Kat sound's like she is just sliding up and down
  the fret broad with a slider.

  After the last chorus you end on five.
  Then there's them make noise to end the song.	
Comments