Babes In Toyland - Vomit Heart Chords & Tabs

 

Vomit Heart Chords & Tabs

Babes In Toyland Chords & Tabs

Version: 1 Type: Tab

Vomit Heart Tab

Album: Spanking Machine
Standard Tuning
Heavy Distortion

Intro/Verse
[ Tab from: http://www.guitartabs.cc/tabs/b/babes_in_toyland/vomit_heart_tab.html ]
E|--------------------------------------------------------------------------|
B|------------------------7--7-7--7-7-7---------------7--7-7--7-7-7---------|
G|------------------------7--7-7--7-7-7---------------7--7-7--7-7-7---------|
D|----------5--5-5--5-5-5-9--9-9--9-9-9-5--5-5--5-5-5-9--9-9--9-9-9---------|
A|----------5--5-5--5-5-5---------------5--5-5--5-5-5-----------------------|
E|----------3--3-3--3-3-3---------------3--3-3--3-3-3-----------------------|
 
For the intro just hit the E and A string on the G5 power chord

Chours

E|--------------------------------------------------------------------------|
B|--------------------------------------------------------------------------|
G|--------------------------------------------------------------------------|
D|-----------5--5-5--5-5-5--5--5-5--5-5-5--5--5-5--5-5-5--------------------|
A|-----------5--5-5--5-5-5--5--5-5--5-5-5--5--5-5--5-5-5--------------------|
E|-----------3--3-3--3-3-3--3--3-3--3-3-3--3--3-3--3-3-3--------------------|

Pm throught out chours