Babes In Toyland - Sfw Chords & Tabs

 

Sfw Chords & Tabs

Babes In Toyland Chords & Tabs

Version: 1 Type: Tab 0 ratings
1 star 2 stars 3 stars 4 stars 5 stars
comments

Sfw Tab

   
S.F.W.

Guitar Tab
Artist: Babes In Toyland
Album: Nemesisters
Tabbed by Fabián Rodríguez (fabian@grungecafe.com)
Mad Pilot 

' = Bends
pm = Palm Mute

Intro:

e|---------------------------------------------------
B|---------------------------------------------------
G|---------------------------------------------------
D|--17-17-17-17-17-17-17-17-17-17-17-17-17.etc--17''-
A|---------------------------------------------------
E|---------------------------------------------------

Chorus

    E - F#                   E - F#     G
e|---------------------------------------------------
B|---------------------------------------------------
G|---------------------------------------------------
D|------4---4---4---4--------4---4---4---5--5555-----
A|------4---4---4---4--------4---4---4---5--5555-----
E|--0---2-0-2-0-2-0-2-0000-0-2-0-2-0-2-0-3--3333-----

First Verse:
(w/pm)

e|---------------------------------------------------
B|---------------------------------------------------
G|---------------------------------------------------
D|------4---4---4---4--------4---4---4---5--5555-----
A|------4---4---4---4--------4---4---4---5--5555-----
E|--0---2-0-2-0-2-0-2-0000-0-2-0-2-0-2-0-3--3333-----

''My angeling, Sleeping green gel anodyne...''


Pre Chorus:

    pm    - without pm
e|--------------------
B|--------------------
G|--------------------
D|---------8-7-------- (4x)
A|--22222--8-7--------
E|--00000--6-5--------

Verse 2. (same as the first)

Chorus:
[ Tab from: http://www.guitartabs.cc/tabs/b/babes_in_toyland/sfw_tab.html ]
e|---------------------------------------------------
B|---------------------------------------------------
G|---------------------------------------------------
D|------4---4---4---4--------4---4---4---5--5555-----
A|------4---4---4---4--------4---4---4---5--5555-----
E|--0---2-0-2-0-2-0-2-0000-0-2-0-2-0-2-0-3--3333-----

{{How how how how... Yeah{{

Solo:

e|---------------------------------------------------
B|---------------------------------------------------
G|------3-3-4-6-4-3--3-6-6''-6-----------------------
D|--4-4----------------------------------------------
A|---------------------------------------------------
E|---------------------------------------------------

e|---------------------------------------------------
B|--------------------------5-4----------------------
G|------3-3-4-6-4-3-4-6-4-3--------------------------
D|--4-4----------------------------------------------
A|---------------------------------------------------
E|---------------------------------------------------

e|------6-6-7-9-7-6-7-9-9''--------------------------
B|--7-7----------------------7-7->-3-2-2-------------
G|--------------------------------------4-3-3--------
D|--------------------------------------------5-4-5--
A|---------------------------------------------------
E|---------------------------------------------------

Pre Chorus. (ending)

                  E-E F#
e|--------------------
B|--------------------
G|--------------------
D|---------8-7-------- (4x)
A|--22222--8-7-----22-3-----
E|--00000--6-5-----00-2-----

So Fuck You, What!.

____________________________________________________________
Comments