Babes In Toyland - Handsome And Gretal Chords & Tabs

 

Handsome And Gretal Chords & Tabs

Babes In Toyland Chords & Tabs

Version: 3 Type: Tab 0 ratings
1 star 2 stars 3 stars 4 stars 5 stars
comments

Handsome And Gretal Tab

---------------------------------------------------------------------------
	       HANDSOME & GRETAL by BABES IN TOYLAND
----------------------------------------------------------------------------
Tabbed by:witchbreed
Email:
[ Tab from: http://www.guitartabs.cc/tabs/b/babes_in_toyland/handsome_and_gretal_tab_ver_3.html ]
Tuning:standard
This is played for intro and verses
For the intro it is repeated four times however on the fourth time end on the seventh 
(in other words do not play the full riff)
e|--------------------------------------------------------------------------|
B|--------------------------------------------------------------------------|
G|--------------------------------------------------------------------------|
D|-7-/-9--9-9---5-5---------------------------------------------------------|
A|-7-/-9--9-9---5-5---------------------------------------------------------|
E|-5-/-7--7-7---3-3-0-------------------------------------------------------|
This is played for the chorus, do the slides by ear, the first slide is on the E string 
second on the A string
e|--------------------------------------------------------------------------|
B|--------------------------------------------------------------------------|
G|--------------------------------------------------------------------------|
D|-2-2-------2-2------------------------------------------------------------|
A|-2-2-------2-2-/----------------------------------------------------------|
E|-0-0-/-----0-0------------------------------------------------------------|
Solo
e|--------------------------------------------------------------------------|
B|--------------------------------------------------------------------------|
G|--------------------------------------------------------------------------|
D|--------------------------------------------------------------------------|
A|--------------------------------------------------------------------------|
E|-0-232-353-23565323-0-232-353-23565323-0-232-353-23565323-----------------|

Back to the first riff for the ending
peace


============================================================================
Comments