Babes In Toyland - Bruise Violet Chords & Tabs

 

Babes In Toyland Chords & Tabs

Version: 3 Type: Tab 0 ratings
1 star 2 stars 3 stars 4 stars 5 stars
comments

Bruise Violet Tab

#----------------------------------PLEASE NOTE---------------------------------#
#This file is the author's own work and represents their interpretation of the #
#song. You may only use this file for private study, scholarship, or research. #
#------------------------------------------------------------------------------##


From: Miki < under.moniker@gmail.com >


Babes In Toyland: Bruise violet

Standard tunning, ofcourse.


Verse

E -----------------------------------|
H -----------------------------------|
G |1---1---1---0---0---0---0---0-----|
D |2---2---2---0---0---0---0---0-----|
A |2---2---2---0---2---2---2---2-----|
E |0---0---0---0---3---3---3---3-----|

Youuuuu ....

Chorus

|--------------------------------|
|--------------------------------|
|5-5-5---5---5-5-5---5---5-5-5---|
|6-6-6---6---6-6-6---6---6-6-6---| This part can also be used as a intro
|4-4-4---4---4-4-4---4---4-4-4---|
|--------------------------------|

Liar ...
[ Tab from: http://www.guitartabs.cc/tabs/b/babes_in_toyland/bruise_violet_tab_ver_3.html ]
|6-6-6---6---6-6-6---6---6-6-6---|--5-5-5---5---5-5-5-----5---5-4-3---|
|5-5-5---5---5-5-5---5---5-5-5---|--4-4-4---4---4-4-4-----4---4-3-2---|
|4-4-4---4---4-4-4---4---4-4-4---|--3-3-3---3---3-3-3-----3---3-2-1---|
|--------------------------------|------------------------------------|

Liar ....			        Liar ...

 Bridge

	           (  /\/\/\/\/\/\/\/\  )    vibrato
|-----------------------------------------------------------|
|-----------------------5-5-5-5-5-5-------------------------|
|-----------------------5-5-5-5-5-5-------------------------|        ( X 3)
|4-4-4-4-4-4-4-4--------------------------------------------|
|4-4-4-4-4-4-4-3--------------------------------------------|
|2-2-2-2-2-2-2-2--------------------------------------------|

	          You are bruise violet

|-----------------------------------------|
|-----------------------------------------|
|-----------------------------------------|
|4-4-4-4-4-4-4---4---5---6---7------------|
|4-4-4-4-4-4-4---3---4---5---6------------|
|2-2-2-2-2-2-2---2---3---4---5------------|
Comments