B S E - Dynamite Chords & Tabs

 

Dynamite Chords & Tabs

B S E Chords & Tabs

Version: 1 Type: Tab 0 ratings
1 star 2 stars 3 stars 4 stars 5 stars
comments

Dynamite Tab

   
song:Dynamite	
artist:B.S.E	
album:N/A

intro,chorus:bass plays same tab
[ Tab from: http://www.guitartabs.cc/tabs/b/b_s_e/dynamite_tab.html ]
e------------------------------------------------------------------------
b------------------------------------------------------------------------
g-------------------4-4-4-4-4-4-4-4-------------------6-6-6-6-6-6-6-6----
d--4-4-4-4-4-4-4-4--4-4-4-4-4-4-4-4--6-6-6-6-6-6-6-6--6-6-6-6-6-6-6-6----
a--4-4-4-4-4-4-4-4--2-2-2-2-2-2-2-2--6-6-6-6-6-6-6-6--4-4-4-4-4-4-4-4----
e--2-2-2-2-2-2-2-2-------------------4-4-4-4-4-4-4-4---------------------

verses:

GUITAR FILL 1:			BASS LINE:

e-----------		-------------------------------------	
b-----------		------------------3-5-6-5------------
g------2-4--		-3-5-4----5-7-6-----------5----------
d--4-4-2-4--		-------4--------6-----------5-0------
a--4-4-0-2--
e--2-2------

GUITAR FILL 2:					

e-----------
b-----------
g-4-2-------
d-4-2--4----
a-2-0--4----
e------2----


NOTES: guitar fills when bass plays first set. 
ORDER: drum solo,intro 4x, verse,chorus,verse,chorus,verse,chorus,
Comments