Azure - Stick Around Chords & Tabs

 

Stick Around Chords & Tabs

Azure Chords & Tabs

Version: 2 Type: Tab

Stick Around Tab

Song: Stick Around
Artist: Azure
Tabber: FranZ Seno (icyhuman@yahoo.com)
Tuning: standard

eto lang po na tab ko..medyo nahirapan ako sa chorus, di ko na naalala..

Intro:

|--2h4--2--------| 
|--2h4----2h4--2-| 
|----------------| 
|----------------| 
|----------------| 
|----------------| 
[ Tab from: http://www.guitartabs.cc/tabs/a/azure/stick_around_tab_ver_2.html ]
|---------2---------------------------------------4--|
|-------2-----------7--7h9-7-tap-5-tap-5--------7----|
|-----4-----------6---------------------------4------|  2x
|---4-----------8---------------------------6--------|
|-2---------2s6--------6---6-tap-4-tap-4--4----------|
|----------------------------------------------------|

Verse:

|---------2---------------------------------------4--|
|-------2-----------7--7h9-7-tap-5-tap-5--------7----|
|-----4-----------6---------------------------4------|  2x
|---4-----------8---------------------------6--------|
|-2---------2s6--------6---6-tap-4-tap-4--4----------|
|----------------------------------------------------|
  How many times do I daydream.....

dugtungan nalang ninyo para matapos..tnx..icyhuman@yahoo.com