Aztek Trip - Beautiful Chords & Tabs

 

Beautiful Chords & Tabs

Aztek Trip Chords & Tabs

Version: 1 Type: Tab

Beautiful Tab

   
----------------------------------------------------------------------------
			     Beautiful - Aztek Trip
----------------------------------------------------------------------------
Tabbed by: Sean_Mac
Email: stm5017@psu.edu

Tuning: half step down (Eb Ab Db Gb Bb Eb)


www.aztektrip.com 


							
Verse					        repeat last bar until chorus
|------------------|---------0-------|--------0--------|---------2---2-3---|
|----3-3---3-3---3-|---3---3---3-0---|---3-0-----3-0---|---3-------3-------|
|--0-----0-----0---|-2---2---------2-|-0-----0-------0-|-----0-------------|
|------------------|-----------------|-----------------|-------------------|
|------------------|-----------------|-----------------|-3-----3-----------|
|------------------|-----------------|-----------------|-------------------|

Chorus 1 (no lyrics)
|---------------------------------|----------------------------------------|
|---------------------------------|----------------------------------------|
|-9--9-9--9-9---12--12-12--12-12--|-7--7-7--7-7---14--14-14--14-14---------|
|-9--9-9--9-9---12--12-12--12-12--|-7--7-7--7-7---14--14-14--14-14---------|
|-7--7-7--7-7---10--10-10--10-10--|-5--5-5--5-5---12--12-12--12-12---------|
|---------------------------------|----------------------------------------|

|---------------------------------|----------------------------------------|
|---------------------------------|----------------------------------------|
|-9--9-9--9-9---12--12-12--12-12--|-7--7-7--7-7---5~~~---------------------|
|-9--9-9--9-9---12--12-12--12-12--|-7--7-7--7-7---5~~~---------------------|
|-7--7-7--7-7---10--10-10--10-10--|-5--5-5--5-5---3~~~---------------------|
|---------------------------------|----------------------------------------|

 

Chorus 2 + 3 (w/ lyrics)

|----------------------------|---------------------------------------------|
|----------------------------|---------------------------------------------|
|---------------7--7-7--7-7--|-9--9-9--9-9---5--5-5--5-5-------------------|
|-5--5-5--5-5---7--7-7--7-7--|-9--9-9--9-9---5--5-5--5-5------2x-----------|
|-5--5-5--5-5---5--5-5--5-5--|-7--7-7--7-7---3--3-3--3-3-------------------|
|-3--3-3--3-3----------------|---------------------------------------------|
[ Tab from: http://www.guitartabs.cc/tabs/a/aztek_trip/beautiful_tab.html ]
|----------------------------|---------------------------------------------|
|----------------------------|---------------------------------------------|
|----------------------------|-7--7-7--7-7---------------------------------|
|-2--2-2--2-2---5--5-5--5-5--|-7--7-7--7-7---7--7-7--7-7------4x-----------|
|-2--2-2--2-2---5--5-5--5-5--|-5--5-5--5-5---7--7-7--7-7-------------------|
|-0--0-0--0-0---3--3-3--3-3--|---------------5--5-5--5-5-------------------|

Bridge
|------------------------------------|-------------------------------------|
|------------------------------------|-------------------------------------|
|-9--9-9--9-9---12--12-12--12-14-12--|-9--9-9--9-9---5---------------------|
|-x--x-x--x-x---x---x--x---x--x--x---|-x--x-x--x-x---x---------------------|
|-7--7-7--7-7---10--10-10--10-12-10--|-7--7-7--7-7---3--------------------
|------------------------------------|-------------------------------------|

|-----------------------------------|--------------------------------------|
|-----------------------------------|--------------------------------------|
|-9--9-9--9-9--12--12-12--12-14-12--|-9/16-16-16-16-16-16-16-11-11-11-11-11|
|-x--x-x--x-x--x---x--x---x--x--x---|-x/x--x--x--x--x--x--x--x--x--x--x--x-|
|-7--7-7--7-7--10--10-10--10-12-10--|-7/14-14-14-14-14-14-14-9--9--9--9--9-|
|-----------------------------------|--------------------------------------|

Final Chorus
|----------------------------|---------------------------------------------|
|----------------------------|---------------------------------------------|
|---------------7--7-7--7-7--|-9--9-9--9-9---5--5-5--5-5-------------------|
|-5--5-5--5-5---7--7-7--7-7--|-9--9-9--9-9---5--5-5--5-5-----2x------------|
|-5--5-5--5-5---5--5-5--5-5--|-7--7-7--7-7---3--3-3--3-3-------------------|
|-3--3-3--3-3----------------|---------------------------------------------|

|----------------------------|---------------------------------------------|
|----------------------------|---------------------------------------------|
|----------------------------|-7--7-7--7-7---------------------------------|
|-2--2-2--2-2---5--5-5--5-5--|-7--7-7--7-7---7--7-7--7-7-----4x------------|
|-2--2-2--2-2---5--5-5--5-5--|-5--5-5--5-5---7--7-7--7-7-------------------|
|-0--0-0--0-0---3--3-3--3-3--|---------------5--5-5--5-5-------------------|


There are a lot of background guitar point, but if you follow this it'll sound
just as good. listen for the strumming and you should be in good shape. 

| /  slide up
| \  slide down
| h  hammer-on
| p  pull-off
| ~  vibrato
| +  harmonic
| x  Mute note
============================================================================