Ayumi Hamasaki - Unite! Chords & Tabs

 

Unite! Chords & Tabs

Ayumi Hamasaki Chords & Tabs

Version: 1 Type: Tab 0 ratings
1 star 2 stars 3 stars 4 stars 5 stars
comments

Unite! Tab

                                                                         "Unite!" Guitar Solo Tab
"Unite!" solo performed at "Ayu Museum 30th Single Collection Live". Solo Improvised by Yoshio Nomura. This concert took place in 2003. If you have seen the DVD of the concert then you should know that the solo is pretty fast. I learned it by ear to the best of my ability. Enjoy!

Song: "Unite!"  By: Ayumi Hamasaki  
Solo By: Yoshio Nomura                                         In standard tuning.

e-----------------------------------------------------------------------------------------
b-----------------------------------------------------------------------------------------
g---15(power chord 5x medium speed)---15(pitch harmonic)----------------------------------
d---15(power chord 5x medium speed)-----------------------16--13------13(pitch harmonic)--
a-----------------------------------------------------------------16----------------------
E-----------------------------------------------------------------------------------------
[ Tab from: http://www.guitartabs.cc/tabs/a/ayumi_hamasaki/unite_tab.html ]
(This whole part goes pretty fast) 
-------------------------------------------------------------------------------------------------
-------------------------------------------------------------------------------------------------
---------------------------------------------------------------------------------13(2x)--15(2x)--
-------------------------------------------11(2x)--13(2x)--(slide down)--16(2x)------------------
---------------------------11(2x)--13(2x)--------------------------------------------------------
---11(2x)--13(2x)--14(2x)------------------------------------------------------------------------

                                                                  (End of fast part)
----------------14(2x)--16(2x)--(slide down)--18(fast string bend)-----------------------------
14(2x)--16(2x)---------------------------------------------------------------------------------
---------------------------------------------------------------------------------------15(power 
---------------------------------------------------------------------------------------15(power
-----------------------------------------------------------------------------------------------
-----------------------------------------------------------------------------------------------


------------------------------------------------------18---18---18---16--------21---21---21(vibrato)---
-----------------------------19---19---16--------16-----------------------19---------------------------
chord)--------------------------------------18---------------------------------------------------------
chord)---16---13--------13-----------------------------------------------------------------------------
-------------------16----------------------------------------------------------------------------------
-------------------------------------------------------------------------------------------------------

                              (End of solo)
(slide up the neck)------------------------]
-------------------------------------------]
-------------------------------------------]
-------------------------------------------]
-------------------------------------------]
-------------------------------------------]
Comments